Joan Jett - I Hate Myself For Loving You Chords & Tabs

 

I Hate Myself For Loving You Chords & Tabs

Joan Jett Chords & Tabs

Version: 1 Type: Bass Tab 0 ratings
1 star 2 stars 3 stars 4 stars 5 stars
comments

I Hate Myself For Loving You Bass Tab

Artist:Joan Jett
Song:I Hate Myself For Loving You
Tabbed By:Gary Hricewich
E-mail:snapper2001@msn.com
[ Tab from: http://www.guitartabs.cc/tabs/j/joan_jett/i_hate_myself_for_loving_you_btab.html ]
INTRO   16X      8X       24X      8X      8X                     
G-----------|---------|---------|--------|-------|
D-----------|---------|---------|--------|-------|
A---7-------|-5-------|-7-------|-5------|-7-----|
E-----------|---------|---------|--------|-------|
                                                    
                                                      
VERSE 16X   16X     16X    16X     16X       16X
G--------|-------|-------|-------|--------|--------|
D--------|-------|-------|-------|--------|--------|
A---7----|-------|-------|-7-----|--------|--------|
E--------|-5-----|-7-----|-------|-5------|-7------|
                                                      
                                                    
BRIDGE  8X     8X       8X       8X       16X
G----------|--------|---------|--------|---------|
D----------|--------|---------|--------|---------|
A----------|--------|---------|--------|---------|
E---3------|-5------|-3-------|-5------|-7-------|
                                                    
                                                 
CHORUS  16X      16X        16X       Stop
G-----------|----------|----------|-----------|
D-----------|----------|----------|-----------|
A---7-------|----------|----------|-7---------|
E-----------|-5--------|-7--------|-----------|
  "THEN PLAY"> INTRO
               VERSE
               BRIDGE
               CHORUS
               INTRO [LEAD]
               BRIDGE
               NO BASS [DRUMS+VOCALS]
               CHORUS
               INTRO 2X
Comments