Joan Jett - Brighter Day Chords & Tabs

 

Brighter Day Chords & Tabs

Joan Jett Chords & Tabs

Version: 1 Type: Tab 0 ratings
1 star 2 stars 3 stars 4 stars 5 stars
comments

Brighter Day Tab

   
#-----------------------------PLEASE NOTE-------------------------------------#
#This OLGA file is the author's own work and represents their interpretation  #
#of the song. You may only use this file for private study, scholarship, or   #
#research. Remember to view this file in Courier, or some other monospaced    #
#font. See http://www.olga.net/faq/ for more information.                     #
#-----------------------------------------------------------------------------#

Date: Sun, 31 Oct 1999 22:31:21 +0100
From: Vanna 
Subject: j/jett_joan/brighter_day.tab

Song: Brighter Day 
Artist: Joan Jett & the Blackhearts
Album: Pure and Simple

Brighter Day
(J. Jett / D. Child)

Play the following throughout the whole song:
[ Tab from: http://www.guitartabs.cc/tabs/j/joan_jett/brighter_day_tab.html ]
                C 
e|---------------------------0--------------------------|
b|---------1-----3-----1-----------1-----3-----1--------|
g|o-----0-----0-----0-----0-----0-----0-----0-----0----o| (play 
D|o----------------------------------------------------o|  twice!)
A|---3--------------------------------------------------|
E|------------------------------------------------------|
                                                     
e|--------------------------------------0-----------|
b|--------1-----3-----1-----------1--------3--1-----|
g|-----0-----0-----0-----0-----0-----0-----------0--|
D|--------------------------------------------------|
A|---3-----------------------3----------------------|
E|--------------------------------------------------|
         Am
e|-------------------------------------0------------|
b|--------1-----3-----1-----------1-------3--1------|
g|-----2-----2-----2-----2-----2-----2----------0---|
D|--------------------------------------------------|
A|--0-----------------------0-----------------------|
E|--------------------------------------------------|
             F
e|--------------1-----------------------5--3--1--0--|
b|--------1-----------1-----------1-----------------|
g|-----2-----2-----2-----2-----2-----2--------------|
D|--3-----------------------3-----------------------|
A|--------------------------------------------------|
E|--------------------------------------------------|
             C                          G
e|--------0-----1-----0-----------------3-----------|
b|--------------------------------0-----------0-----|
g|-----0-----0-----0-----0-----0-----0-----0-----0--|
D|--------------------------------------------------|
A|--3-----------------------------------------------|
E|--------------------------3-----------------------|

the whole song: 
C, Am, F, Fm, C, G, F, C                     

(I'm not trying to tell you...)
C, Em, Bb, F, Fm, C, G

    EADGBE
C : x32010 
Am: x02210 
F : 320011 
G : 320003 
Fm: 133111 
Bb: 113331 


Comments