Joan Jett - Bad Reputation Chords & Tabs

 

Bad Reputation Chords & Tabs

Joan Jett Chords & Tabs

Version: 1 Type: Tab 0 ratings
1 star 2 stars 3 stars 4 stars 5 stars
comments

Bad Reputation Tab

Artist - Joan Jett
Song - Bad Reputation

Intro
E||----------------------------------|
B||----------------------------------|
G||----------------------------------|
D||--9-9-9-9-9-9-9-9-9-9-9-9-9-9-9-9-|
A||--9-9-9-9-9-9-9-9-9-9-9-9-9-9-9-9-|x4
E||--7-7-7-7-7-7-7-7-7-7-7-7-7-7-7-7-| 


"I don't give a damn bout my reputation..."
"Livin in the past..."
Verse
E||----------------------|
B||----------------------|
G||----------------------|
D||--9-9-9-9-9-9-9-9-9-9-|
A||--9-9-9-9-9-9-9-9-9-9-| x2
E||--7-7-7-7-7-7-7-7-7-7-|


E||-----------------------------------|---|
B||-----------------------------------|---|
G||--9-9-9-9--11-11-11-11--9-9-8-8----|---|
D||--9-9-9-9--11-11-11-11--9-9-8-8-11-|-9-|
A||--7-7-7-7--9--9--9--9---7-7-6-6-11-|-9-| x1
E||--------------------------------9--|-7-|

Chorus
E||-----------------------|
B||-----------------------|
G||-------9-9-9--11-11----|
D||--9-9--9-9-9--11-11--9-|
A||--9-9--7-7-7--9--9---9-| x2
E||--7-7----------------7-|

Repeat Verse
Repeat Chorus x4

Then,
"I don't give a damn bout my reputation"
1:07
E||----------------------------------------|
B||----------------------------------------|
G||----------------------------------------|
D||-11----11-11-11-11-11-11-11-11-11-11-11-|
A||-11----11-11-11-11-11-11-11-11-11-11-11-| x2 
E||-9------9--9--9--9--9--9--9--9--9--9--9-|
[ Tab from: http://www.guitartabs.cc/tabs/j/joan_jett/bad_reputation_tab.html ]
E||----------------------------------------|
B||----------------------------------------|
G||----------------------------------------|
D||-11----11-11-11-11-11-11-11-11-11-11-11-|
A||-11----11-11-11-11-11-11-11-11-11-11-11-|x2 
E||-9------9--9--9--9--9--9--9--9--9--9--9-|

                                        
E||-----------------------------------|
B||-----------------------------------|
G||---------------11-11-11--13-13-----|
D||--11----11-11--11-11-11--13-13--11-|
A||--11----11-11--9--9--9---11-11--11-|x4
E||--9-----9--9--------------------9--|

E||----------------------------------------|
B||----------------------------------------|
G||----------------------------------------|
D||-11----11-11-11-11-11-11-11-11-11-11-11-|
A||-11----11-11-11-11-11-11-11-11-11-11-11-| x2 
E||-9------9--9--9--9--9--9--9--9--9--9--9-|

E||----------------------------------------|
B||----------------------------------------|
G||----------------------------------------|
D||-11----11-11-11-11-11-11-11-11-11-11-11-|
A||-11----11-11-11-11-11-11-11-11-11-11-11-| x2 
E||-9------9--9--9--9--9--9--9--9--9--9--9-|

E||-----------------------------------|
B||-----------------------------------|
G||---------------11-11-11--13-13-----|
D||--11----11-11--11-11-11--13-13--11-|
A||--11----11-11--9--9--9---11-11--11-| x4
E||--9-----9--9--------------------9--|

There it is. It's a pretty simple song.
Comments