Joachim Deutschland - Ein Wenig Anarchie Chords & Tabs

 

Ein Wenig Anarchie Chords & Tabs

Joachim Deutschland Chords & Tabs

Version: 1 Type: Tab 0 ratings
1 star 2 stars 3 stars 4 stars 5 stars
comments

Ein Wenig Anarchie Tab

Joachim Deutschland

Ein wenig Anarchie!



Tuning: 1/2 step down


Intro:
       3x           1x
|--------------|----------|---------------------------------|
|--------------|----------|---------------------------------|
|--------------|----------|----111111111212121214141414-----|
|--------------|-----5----|---------------------------------|
|----7-7-5h7-5-|-7-7------|---- 9 9 9 91010101011111111-----|
|--------------|----------|---------------------------------|


Verse1:
|---------------------------|
|---------------------------|
|----9----------------------|
|----9----10----7-----------|
|----7----10----7-----------|
|-------- 8-----5----5p0----|


Pre-Chorus
|-----------------------|
|-----------------------|
|--------9-----9---9----|
|--------9-----9---9----|
|--------7-----7---7----|
|----0-0-0-0-0-0-0-0----|
     . .   . .   .       


Chorus
|------------------|------|----------|
|------------------|------|----------|
|----9----10-------|--10--|----------|
|----9----10----7--|--10--|--xxxxxx--|
|----7----10----7--|-- 5--|--xxxxxx--|
|--------- 8----5--|------|--xxxxxx--|

[ Tab from: http://www.guitartabs.cc/tabs/j/joachim_deutschland/ein_wenig_anarchie_tab.html ]
Verse2:
|-------------------------------------|
|-------------------------------------|
|----9--------------------------------|
|----9----10----7------2---10----2----|
|----7----10----7------2---10----2----|
|-------- 8-----5----5p0--- 8----0----|


Bridge
|-----------------------------|------------------------|
|-----------------------------|------------------------|
|--------------7--------------|--------------7---------|
|----7----3----7----7----3----|----7----3----7----5----|
|----7----3----5----7----3----|----7----3----5----5----|
|----5----1---------5----1----|----5----1---------3----|


Solo:
|-------------------------------------------------------------------------------------------|
|-------------------------------------------------------------------------------------------|
|----7--7--7~------9-7-7~--7--7-7-7-7h9p7-5~--7-7-7-9~--5-----------------------------------|
|-------------7---7-7------------------------------------7--9-9-7--9-9-10-10-9--10-10-9-10--|
|-------------------------------------------------------------------------------------------|
|-------------------------------------------------------------------------------------------|

|-------------------------------------------------------|
|-------------------------------------------------------|
|------14-14-14-14~~---17-17~-17~-172019172019172019----|
|-12----------------------------------------------------|
|-------------------------------------------------------|
|-------------------------------------------------------|



Im not sure with the solo, but when i play it, it sounds right.
Comments