Jj Cale - Cocaine Chords & Tabs

 

Cocaine Chords & Tabs

Jj Cale Chords & Tabs

Version: 1 Type: Tab 1 rating
1 star 2 stars 3 stars 4 stars 5 stars
comments

Cocaine Tab

First, start with this..
[ Tab from: http://www.guitartabs.cc/tabs/j/jj_cale/cocaine_tab.html ]
|---------------------------------------------------------------------|
|---------------------------------------------------------------------|
|---9----9--7----9--------------9----7--------------------------------|
|---9----9--7----9--------------9----7--------------------------------|
|---------------------9-~-11------------------------------------------|
|---------------------------------------------------------------------|

x6

Then this..

|---------------------------------------------------------------------|
|---------------------------------------------------------------------|
|---------------------------------------------------------------------|
|---9----7----5----4--------------------------------------------------|
|---7----5----3----2--------------------------------------------------|
|---------------------------------------------------------------------|
Comments