Jj72 - Snow Chords & Tabs

 

Snow Chords & Tabs

Jj72 Chords & Tabs

Version: 2 Type: Tab 0 ratings
1 star 2 stars 3 stars 4 stars 5 stars
comments

Snow Tab

   
Artist: JJ72
Title: Snow
Album: JJ72
transcribed by: teddy   teddypeak@wp.pl


INTRO:
-------
E|--1--------------------------------0--3--0--------|
B|--3----------1--3--1-------------------------1----|
G|--2-------------------0--------2------------------|
D|--0-------2----------------3----------------------|
A|-------3------------------------------------------|
E|--------------------------------------------------|


VERSE:
--------
E|-------------------------------0--3--0--------|
B|---------1--3--1-------------------------1----|
G|------------------0--------2------------------|
D|------2----------------3----------------------|
A|---3------------------------------------------|
E|----------------------------------------------|

          C                      
People go dancing
                Fmaj7
In crowded rooms
                   C
My head is getting tired
              Fmaj7
Darkness looms
            C
Children go cursing
                    F
At their only cause 
[ Tab from: http://www.guitartabs.cc/tabs/j/jj72/snow_tab_ver_2.html ]
CHORUS:
--------
   F   e        d
   Why won't it snow
   F    e            d
   Like they said it would
   F       e            d
   What is it that they know
   F      e      d
   That I really should 



VERSE:
--------
I check my look in the mirror
It don't glow
My face is getting thinner
Darkness shows
Children go cursing
At their only cause 


CHORUS:
--------
   Why won't it snow
   Like they said it would
   What is it that they know
   That I really should 


MIDDLE:
--------
E|-------------------------------|
B|-------------------------------|
G|-5--5--5--7--9-----------------|
D|-5--5--5--7--9---3--3--3--4--5-|  x2
A|-3--3--3--5--7---3--3--3--4--5-|
E|-----------------1--1--1--2--3-|
   C5      D5 E5   F5      F#5 G5
   
E|-------------------------------|
B|-------------------------------|
G|-5--5--5--7--9--10-10-10-10-10-|
D|-5--5--5--7--9--10-10-10-10-10-|  
A|-3--3--3--5--7--8--8--8--8--8--|
E|-------------------------------|
                  F5

CHORUS:
---------
   Why won't it snow
   Like they said it would
   What is it that they know
   That I really should


(play VERSE RIFF to fade)

      EADGBe
d     XX0231
C     332010
Fmaj7 X03210
F     133211
e     022000
C5    X355XX
D5    X577XX
E5    X799XX
F5(I) 133XXX
F5(2) X81010XX
G5    355XXX

transcribed by: teddy   teddypeak@wp.pl
Comments