Jj72 - Snow Chords & Tabs

 

Snow Chords & Tabs

Jj72 Chords & Tabs

Version: 2 Type: Bass Tab 0 ratings
1 star 2 stars 3 stars 4 stars 5 stars
comments

Snow Bass Tab

Artist-JJ72
Song-Snow
Album-JJ72
Intro and Verse:
G-----------------
D-----------------  Repeat throughout verse
A-3----10/8---10/3  
E-----------------
[ Tab from: http://www.guitartabs.cc/tabs/j/jj72/snow_btab_ver_2.html ]
Chorus:
G-----------------
D-----------------
A-8-8-7-8--5-5-5-5
E-----------------
Repeat until:
G-----------------------------
D----------------------3-5-3--
A-8-8-8--7-8--5-5--3-5-------5
E-----------------------------
then:
G-----------
D-----------
A-8-8-7-8--5
E-----------

Solo:
G---------------------------
D---------------------------
A-3--3--3-5-7/--------------
E---------------1--1--1-2-3/
repeat until:
G----------------------------
D----------------------------
A-3--3--3-5-7\8-8-8-8-8-8-8-8
E----------------------------
then back to chorus

Outro:
same as verse
Comments