Jj72 - Oxygen Chords & Tabs

 

Oxygen Chords & Tabs

Jj72 Chords & Tabs

Version: 2 Type: Tab 0 ratings
1 star 2 stars 3 stars 4 stars 5 stars
comments

Oxygen Tab

   
Artist: JJ72
Title: Oxygen
Album: JJ72
transcribed by: teddy   teddypeak@wp.pl

INTRO:
--------
E|-----------------|
B|--2----------0---|
G|--2-------2--1---|
D|--2-------0--2---| (x2)
A|--0-------2--2---|
E|-------------0---|


1st VERSE:
-----------
E|-----------------|         E|------------------|
B|--2----------0---|         B|--3---------------|
G|--2-------2--1---|         G|--4-----------1---|
D|--2-------0--2---| (x3)    D|--4-----------2---| (x2)
A|--0-------2--2---|         A|--2-----------2---|
E|-------------0---|         E|--------------0---|
    
E|---------------------------------------------|
B|-3-------3-5--6-6-6-6-6-6-6-6-6-6-6-6-6-6-6--|
G|-4-------4-6--7-7-7-7-7-7-7-7-7-7-7-7-7-7-7--|
D|-4-------4-6--7-7-7-7-7-7-7-7-7-7-7-7-7-7-7--|
A|-2-------2-4--5-5-5-5-5-5-5-5-5-5-5-5-5-5-5--|
E|---------------------------------------------|

2nd VERSE:
------------
E|-----------------|         E|------------------|
B|--2----------0---|         B|--3---------------|
G|--2-------2--1---|         G|--4-----------1---|
D|--2-------0--2---| (x3)    D|--4-----------2---| (x2)
A|--0-------2--2---|         A|--2-----------2---|
E|-------------0---|         E|--------------0---|

                                d-riff
E|------------------------------13-13-13-13-15-15-13-13-13-13-|
B|-3--5--6-6-6-6-6-6-6-6-6-6-6--15-15-15-15-15-15-15-15-15-15-|
G|-4--6--7-7-7-7-7-7-7-7-7-7-7--14-14-14-14-14-14-14-14-14-14-|
D|-4--6--7-7-7-7-7-7-7-7-7-7-7--------------------------------|
A|-2--4--5-5-5-5-5-5-5-5-5-5-5--------------------------------|
E|------------------------------------------------------------|

E|-13-13-13-13-13-13-13-13-13-15-15-15-15-15-15-15-15-15-|
B|-15-15-15-15-15-15-15-15-15-15-15-15-15-15-15-15-15-15-|
G|-14-14-14-14-14-14-14-14-14-14-14-14-14-14-14-14-14-14-|
D|-------------------------------------------------------|
A|-------------------------------------------------------|
E|-------------------------------------------------------|


CHORUS:
--------
E|-----------------------------------------------|
B|-------------------0-0-0-0-0-0-0-0-0-0-0-0-0-0-|
G|-6-6-6-6-6-6-6-6-6-2-2-2-2-2-1-1-1-1-1-1-1-1-1-|
d|-7-7-7-7-7-7-7-7-7-0-0-0-0-0-2-2-2-2-2-2-2-2-2-| (x3)
A|-7-7-7-7-7-7-7-7-7-0-0-0-0-0-2-2-2-2-2-2-2-2-2-|
E|-5-5-5-5-5-5-5-5-5-----------0-0-0-0-0-0-0-0-0-|

E|-----------------------------|
B|-3-3-3-3-3-3-3---------------|
G|-4-4-4-4-4-4-4-1-1-1-1-1-1-1-|
d|-4-4-4-4-4-4-4-2-2-2-2-2-2-2-| (x2)
A|-2-2-2-2-2-2-2-2-2-2-2-2-2-2-|
E|---------------0-0-0-0-0-0-0-|
[ Tab from: http://www.guitartabs.cc/tabs/j/jj72/oxygen_tab_ver_2.html ]
E|-------------------------------------13-13-13-13-15-15-13-13-13-13-|
B|-3-3-3-3-3-5--6-6-6-6-6-6-6-6-6-6-6--15-15-15-15-15-15-15-15-15-15-|
G|-4-4-4-4-4-6--7-7-7-7-7-7-7-7-7-7-7--14-14-14-14-14-14-14-14-14-14-|
D|-4-4-4-4-4-6--7-7-7-7-7-7-7-7-7-7-7--------------------------------|
A|-2-2-2-2-2-4--5-5-5-5-5-5-5-5-5-5-5--------------------------------|
E|-------------------------------------------------------------------|

E|-13-13-13-13-13-13-13-13-13-15-15-15-15-15-15-15-15-15-|
B|-15-15-15-15-15-15-15-15-15-15-15-15-15-15-15-15-15-15-|
G|-14-14-14-14-14-14-14-14-14-14-14-14-14-14-14-14-14-14-|
D|-------------------------------------------------------|
A|-------------------------------------------------------|
E|-------------------------------------------------------|

BRIDGE:(with cellos)
----------------------
E|-----------------------------------------------|
B|-------------------0-0-0-0-0-0-0-0-0-0-0-0-0-0-|
G|-6-6-6-6-6-6-6-6-6-2-2-2-2-2-1-1-1-1-1-1-1-1-1-|
d|-7-7-7-7-7-7-7-7-7-0-0-0-0-0-2-2-2-2-2-2-2-2-2-| (x3)
A|-7-7-7-7-7-7-7-7-7-0-0-0-0-0-2-2-2-2-2-2-2-2-2-|
E|-5-5-5-5-5-5-5-5-5-----------0-0-0-0-0-0-0-0-0-|

E|--------------------------------------------------------------------------|
B|--------------------------------------------------------------------------|
G|-7/9-9-9-9/10-10-10-10/12-12-12-12/14-14-14-14/16-16-16-16-16-16-16-16-16-|
D|--------------------------------------------------------------------------|
A|--------------------------------------------------------------------------|
E|--------------------------------------------------------------------------|


*************************************

1st VERSE:
------------
A                 D/B    E
Short sleeves and warm skin
Losing coins calling next of kin
Dropping words about the city we're in
Bm                   E
Ponds compressed by heavy air
Us without care just sprawling there
Bm       C#m   d
Gods in our world


Airports and undergrounds
Waiting to find the unfound
Rising to pure insanity
Here when you want me true love
Has no simplicity
Bm      C#m     d      d-riff
Gods in our world

CHORUS:
--------
   A               D/B      E
   You and I we're going so high
   The air is getting thin
   But our land does not breathe in
   Bm                 E
   And we don`t need oxygen
   It`s dreams that bind us and locks us in
   Bm                  C#m     d      d-riff
   The rest are impaled by sense


BRIDGE:(instrumental)
--------

CHORUS:
---------
   You and I we're going so high
   The air is getting thin
   But our land does not breathe in
   And we don`t need oxygen
   It`s dreams that bind us and locks us in
   The rest are impaled by sense



    EADGBe
A   X02220
A*  577655
D/B X20230
E   022100
Bm  X24432
C#m X46654
d   X57765

transcribed by: teddy   teddypeak@wp.pl
Comments