Jj72 - October Swimmer Chords & Tabs

 

October Swimmer Chords & Tabs

Jj72 Chords & Tabs

Version: 2 Type: Tab 0 ratings
1 star 2 stars 3 stars 4 stars 5 stars
comments

October Swimmer Tab

   
Song   : October Swimmer
Band   : JJ72
tab by : Thomas Farrell E-mail: andycole10@hotmail.com

This is just a better way to playing the song then the last attempt put up

CHORDS
       EADGBE
C     (X32010)
Cmaj7 (X32000)
A5    (X022XX)
Am    (X02210)
Dm    (XX0231)
G     (320003)


[ Tab from: http://www.guitartabs.cc/tabs/j/jj72/october_swimmer_tab_ver_2.html ]
C               Cmaj7   A5  Am
the dreams of dying     mothers
C             Cmaj7    A5    Am
i awoke my insides    shuddered
Dm
the grey coast of the infantry
G
victims looking for sympathy
C                 Cmaj7   A5  Am
the splash of october    swimmers
C                 Cmaj7  A5   Am
the cheers of helsinki   winners
Dm
my barbed bones of futility
G
leaking marrow of ability
C               Cmaj7  A5    Am
and iiiiii I dont need anyyyyyone
C                   Cmaj7  A5    Am
and youuuuu you dont need  anyyyyyone
Dm
i want to be a happy boy
G				    C
this means that you must employ my liessss
     Cmaj7  A5   Am
when i      want you
C                  Cmaj7  A5   Am
and iiiiiii I dont need  anyyyyyone
Dm
i want to be a happy boy
G                                  (SOLO)
this means that you must employ mY liessss


SOLO
E|---------------------------------------------------------|---------
B|---------------------------------------------------------|---------
G|-9-9-9-9-9-9-9-9-9-9-9-7-5\4-4-4-4-4b5-2-2-2p0-2b3b2-0h2-|---------
D|---------------------------------------------------------|---------
A|---------------------------------------------------------|---------
E|---------------------------------------------------------|---------
                                                                              

E|---------------------------------------------------------|---------
B|---------------------------------------------------------|---------
G|-9-9-9-9-9-9-9-9-9-9-9-7-5\4-4-4-4-4b5-2-2-2p0-2b4b2-0h2-|---------
D|---------------------------------------------------------|---------
A|---------------------------------------------------------|---------
E|---------------------------------------------------------|---------
                                                                              

E|---------------------------------------------------|---------------
B|----------------------12-12-12-12-10---------------|---------------
G|-10--10--10-9--9-7-------------------12--10--9--7--|---------------
D|-------------------7-------------------------------|---------------
A|---------------------------------------------------|---------------
E|---------------------------------------------------|---------------
                                  
FINSIH THE SONG THE WAY IT FINISHES :) (TOO LAZY TO TYPE IT OUT)
Comments