Jj72 - Brother Sleep Chords & Tabs

 

Brother Sleep Chords & Tabs

Jj72 Chords & Tabs

Version: 1 Type: Tab 0 ratings
1 star 2 stars 3 stars 4 stars 5 stars
comments

Brother Sleep Tab

   
Hey im a big jj72 fan and rock fan

e-mail me if you have any requests for guitar or bass tabs.




NOTE:
*play with acoustic or a clean electric guitar


INTRO x2
    (C)              (Am)
e||--------------------------------------------------------------------|
B||--1-1-0-0-1-1-0-0-1-1-0-0-1-1-1-1-----------------------------------|
G||---0-0-0-0-0-0-0-0-2-2-2-2-2-2-2-0----------------------------------|
D||--------------------------------------------------------------------|
A||--------------------------------------------------------------------|
E||--------------------------------------------------------------------|

(00:22) END INTRO WITH
    (Am)
e||-----------------------------|
B||--1--------------------------|
G||--2--------------------------|
D||--2--------------------------|
A||-----------------------------|
E||-----------------------------|


(00:25) VERSE 1 x2
{PLAY INTRO}

(00:47) END VERSE WITH
{PLAY END INTRO}

(00:49) VERSE 2
this cloth is green as an ochard.........................................
     (C)   (Em)  (C)   (Em)  (Am)  (Em)  (Fmaj7)
e||----------------------------------------------------------------------|
B||--1-1-1-------1-1-1-------1-1-1-------1-1-1-1-1-1---------------------|
G||--------------------------2-2-2-------2-2-2-2-2-2---------------------|
D||--2-2-2-2-2-2-2-2-2-2-2-2-2-2-2-2-2-2-3-3-3-3-3-3---------------------|
A||--3-3-3-2-2-2-3-3-3-2-2-2-------2-2-2---------------------------------|
E||--x-x-x-------x-x-x-------x-x-x---------------------------------------|

[ Tab from: http://www.guitartabs.cc/tabs/j/jj72/brother_sleep_tab.html ]
(01:00)
This girl cries tears as if tortured......................................
     (C)   (Em)  (C)   (Em)  (Am)  (Em)  (F)
e||--------------------------------------1-1-1-1-1-1---------------------|
B||--1-1-1-------1-1-1-------1-1-1-------1-1-1-1-1-1---------------------|
G||--------------------------2-2-2-------2-2-2-2-2-2---------------------|
D||--2-2-2-2-2-2-2-2-2-2-2-2-2-2-2-2-2-2-3-3-3-3-3-3---------------------|
A||--3-3-3-2-2-2-3-3-3-2-2-2-------2-2-2-3-3-3-3-3-3---------------------|
E||--x-x-x-------x-x-x-------x-x-x-------1-1-1-1-1-1---------------------|


(01:14) CHORUS x2
im gonna see you through this my love....................................
    (C)              (Em)            (Am)            (F)
e||--------------------------------------------------1-1-1-1-1-1-1-1-----|
B||--1-1-1-1-1-1-1-1-----------------1-1-1-1-1-1-1-1-1-1-1-1-1-1-1-1-----|
G||----------------------------------2-2-2-2-2-2-2-2-2-2-2-2-2-2-2-2-----|
D||--2-2-2-2-2-2-2-2-2-2-2-2-2-2-2-2-2-2-2-2-2-2-2-2-3-3-3-3-3-3-3-3-----|
A||--3-3-3-3-3-3-3-3-2-2-2-2-2-2-2-2-----------------3-3-3-3-3-3-3-3-----|
E||--------------------------------------------------1-1-1-1-1-1-1-1-----|

(01:37) END CHORUS WITH
     (F)
e||--1-1-1-1-1-1-1-1-----|
B||--1-1-1-1-1-1-1-1-----|
G||--2-2-2-2-2-2-2-2-----|
D||--3-3-3-3-3-3-3-3-----|
A||--3-3-3-3-3-3-3-3-----|
E||--1-1-1-1-1-1-1-1-----|


(01:40) PLAY VERSE 2 x2


(02:04) PLAY CHORUS x4


(02:48) MIDDLE x2
{PLAY VERSE}

(03:11) END MIDDLE WITH
     (F)
e||--1-1-1-1-1-1-1-1-----|
B||--1-1-1-1-1-1-1-1-----|
G||--2-2-2-2-2-2-2-2-----|
D||--3-3-3-3-3-3-3-3-----|
A||--3-3-3-3-3-3-3-3-----|
E||--1-1-1-1-1-1-1-1-----|


(03:13) PLAY CHORUS x4


(04:01) PLAY VERSE 2



such a beautiful song too.

Comments