Jimmy Page - Come With Me Chords & Tabs

 

Come With Me Chords & Tabs

Jimmy Page Chords & Tabs

Version: 2 Type: Tab 0 ratings
1 star 2 stars 3 stars 4 stars 5 stars
comments

Come With Me Tab

Verse
E----------------------------------------------------------------------------|
B----------------------------------------------------------------------------|
G--2--2--2---2--2--2---3--3--3---3--3--3---4--4--4---4--4--4----5--5--5------|
D--0--0--0---0--0--0---0--0--0---0--0--0---0--0--0---0--0--0----0--0--0------|
A--5--5--5---5--5--5---5--5--5---5--5--5---5--5--5---5--5--5----5--5--5------|
E---------------------------0-----------------------0-------------------0----|

E---------------------------------------------------------------------------|
B---------------------------------------------------------------------------|
G------5--5--5-----7--7--7----2--2--2---------------------------------------|
D------0--0--0-----0--0--0----0--0--0---------------------------------------|
A------5--5--5-----5--5--5----5--5--5---------------------------------------|
E---------------0-----------------------------------------------------------|

Chorus
E----------------------------------------------------------------------------|
B----------------------------------------------------------------------------|
G------12--12--10--10--7--7--5--5--3--3--------------------------------------|
D------12--11--10---9--7--6--5--4--3--2----3p2p0-----------------------------|
A----------------------------------------------------------------------------|
E----------------------------------------------------------------------------|
[ Tab from: http://www.guitartabs.cc/tabs/j/jimmy_page/come_with_me_tab_ver_2.html ]
Bridge
E-----5--------------5---------------3-------------3--------------------1----|
B---6-----6------6-----6--------5------5-------5-------5--------3----3-------|
G-7----------7--------------5----------------5---------------3---------------|
D----------------------------------------------------------------------------|
A----------------------------------------------------------------------------|
E----------------------------------------------------------------------------|

E---------1-----------------0---------------0--------------------------------|
B-----3------3---------2-----2-------2-------2-------------------------------|
G-3-----------------2---------------2----------------------------------------|
D----------------------------------------------------------------------------|
A-------------------------------repeat2x-------------------------------------|
E----------------------------------------------------------------------------|

then....

E---------1-------------1----------------3--------------3---------------0----|
B--3----3-------3-----3--------5-----5-------5-----5--------2----2----2------|
G-3-------------3------------------5--------------5--------------2-------2---|
D----------------------------------------------------------------------------|
A----------------------------------------------------------------------------|
E----------------------------------------------------------------------------|

E----0----|
B--2------|
G---------|
D---------|
A---------|
E---------|

E--------0---------------|
B-----2-----2------------|back to verse
G-2------------2---------|


After the chorus ther's a part that goes like this.....
E---------------------------------------------------------------------------|
B---------------------------------------------------------------------------|
G---7---------7---7---------7\----------------------------------------------|
D---0---------0---0---------0\--1\2 bend------------------------------------|
A---5---------5---5---------5\----------------------------------------------|
E---------------------------------------------------------------------------|
Comments