Jimmy Fallon - Snowball Chords & Tabs

 

Snowball Chords & Tabs

Jimmy Fallon Chords & Tabs

Version: 2 Type: Tab 0 ratings
1 star 2 stars 3 stars 4 stars 5 stars
comments

Snowball Tab

   
   This song is in normal tuning. 

   All of the verses are played with these chords.

      E5          F5         G5        A5
e|---------------------------------------------|
B|---------------------------------------------|
G|---------------------------------------------|
D|--2-2-2-2-----3-3-3-3----5-5-5-5----7-7-7-7--|
A|--2-2-2-2-----3-3-3-3----5-5-5-5----7-7-7-7--|
E|--0-0-0-0-----1-1-1-1----3-3-3-3----5-5-5-5--|
   pm~~~~~~    pm~~~~~~   pm~~~~~~   pm~~~~~~
[ Tab from: http://www.guitartabs.cc/tabs/j/jimmy_fallon/snowball_tab_ver_2.html ]
              CHORUS CHORUS CHORUS
      E5          F5         G5        A5
e|---------------------------------------------|
B|---------------------------------------------|
G|---------------------------------------------|
D|--2-2-2-2-----3-3-3-3----5-5-5-5----7-7-7-7--|
A|--2-2-2-2-----3-3-3-3----5-5-5-5----7-7-7-7--|
E|--0-0-0-0-----1-1-1-1----3-3-3-3----5-5-5-5--|
                   NOT Palm Muted
                  -----
                   ---
                    -

Snow Day, schools closed and I cant wait; I'll go outside,
And I just might, get into a snowball fight !!!!!!

       CHORUS CHORUS CHORUS
Snowball Snowball Snowball Fight
Snowball Snowball Snowball Fight
Snowball Snowball Snowball Fight
Snowball Snowball Snowball Fight

I ran, I jumped and tackled a snowman, I turned around
And didn't see, Fifteen snowballs coming at me !!!!!!!

          Chorus Chorus Chorus

Moon boots, and a hand me down snow suit, Snot is dripping,
from my nose, My lips are chapped and my cocoa froze;
And I got no, I can see ya through your window, 
Sneak attack, in a field, use your toboggan as a shield!!!

           CHORUS CHORUS CHORUS

Snow ball FIGHT FIGHT FIGHT
Snow ball FIGHT FIGHT FIGHT
Snow ball FIGHT FIGHT FIGHT
Snow ball FIGHT FIGHT FIGHT
Comments