Jimmy Eat World - Your New Aesthetic Chords & Tabs

 

Your New Aesthetic Chords & Tabs

Jimmy Eat World Chords & Tabs

Version: 1 Type: Tab 0 ratings
1 star 2 stars 3 stars 4 stars 5 stars
comments

Your New Aesthetic Tab

   
#----------------------------------PLEASE NOTE---------------------------------#
#This file is the author's own work and represents their interpretation of the #
#song. You may only use this file for private study, scholarship, or research. #
#------------------------------------------------------------------------------#

Jimmy Eat World - Your New Aesthetic (from the album Clarity) 

Drop-D Tuning (D A D G B E) 

Intro: 
distorted guitar w/ heavy palm muting 
|----------------------------------------------------------------- 
|----------------------------------------------------------------- 
|----------------------------------------------------------------- 
|-0-0-0-0-0-0-0-0-0-0-0-0-0-0-0-0-0-0-0-0-0-0-0-0-0-0-0-0-0-0-0-0- 
|-2-2-2-2-2-2-2-2-2-2-2-2-2-2-2-2-5-5-5-5-5-5-5-5-5-5-5-5-5-5-5-5- 
|-0-0-0-0-0-0-0-0-0-0-0-0-0-0-0-0-0-0-0-0-0-0-0-0-0-0-0-0-0-0-0-0- 

|----------------------------------------------------------------- 
|----------------------------------------------------------------- 
|----------------------------------------------------------------- 
|-2-2-2-2-2-2-2-2-2-2-2-2-2-2-2-2-0-0-0-0-0-0-0-0-0-0-0-0-0-0-0-0- 
|-2-2-2-2-2-2-2-2-2-2-2-2-2-2-2-2-2-2-2-2-2-2-2-2-2-2-2-2-0-0-0-0- 
|-2-2-2-2-2-2-2-2-2-2-2-2-2-2-2-2-0-0-0-0-0-0-0-0-0-0-0-0-0-0-0-0- 
  

Verse: 

|----------------------------------------------------------------- 
|----------------------------------------------------------------- 
|----------------------------------------------------------------- 
|---------------------------------0-0-0-0-0-0-0-0-0-0-0-0-0-0-0-0- 
|-2-2-2-2-2-2-2-2-2-2-2-2-2-2-2-2-2-2-2-2-2-2-2-2-2-2-2-2-2-2-2-2- 
|-2-2-2-2-2-2-2-2-2-2-2-2-2-2-2-2--------------------------------- 

|----------------------------------------------------------------- 
|----------------------------------------------------------------- 
|----------------------------------------------------------------- 
|---------------------------------0-0-0-0-0-0-0-0-0-0-0-0-0-0-0-0- 
|-2-2-2-2-2-2-2-2-2-2-2-2-2-2-2-2-2-2-2-2-2-2-2-2-2-2-2-2-2-2-2-2- 
|-2-2-2-2-2-2-2-2-2-2-2-2-2-2-2-2--------------------------------- 
[ Tab from: http://www.guitartabs.cc/tabs/j/jimmy_eat_world/your_new_aesthetic_tab.html ]
|---------------------------------------------------------------------------------------------- 
|---------------------------------------------------------------------------------------------- 
|---------------------------------------------------------------------------------------------- 
|-0-0-0-0-0-0-0-0-0-0-0-0-0-0-0-0-0-0-0-0-0-0-0-0-0-0-0-0-0-0-0-0-2-2-2-2-2-2-2-2-2-2-2-2-2-2-2 
|-5-5-5-5-5-5-5-5-5-5-5-5-5-5-5-5-2-2-2-2-2-2-2-2-2-2-2-2-2-2-2-2-2-2-2-2-2-2-2-2-2-2-2-2-2-2-2 
|-0-0-0-0-0-0-0-0-0-0-0-0-0-0-0-0-0-0-0-0-0-0-0-0-0-0-0-0-0-0-0-0-2-2-2-2-2-2-2-2-2-2-2-2-2-2-2 

Guitar 1 
|----------------------------------------------------------------- 
|----------------------------------------------------------------- 
|----------------------------------------------------------------- 
|-9-9-9-9-9-9-9-9-9-9-9-9-9-9-9-9-9-9-9-9-9-9-9-9-9-9-9-9-9-9-9-9- 
|-9-9-9-9-9-9-9-9-9-9-9-9-9-9-9-9-9-9-9-9-9-9-9-9-9-9-9-9-9-9-9-9- 
|-9-9-9-9-9-9-9-9-9-9-9-9-9-9-9-9-9-9-9-9-9-9-9-9-9-9-9-9-9-9-9-9- 

Guitar 2 
|-0---0---0--0--0---0---0--0--0---0---0--0--0---0---0--0-- 
|-12b-12b-12-12-12b-12b-12-12-12b-12b-12-12-12b-12b-12-12- 
|--------------------------------------------------------- 
|--------------------------------------------------------- 
|--------------------------------------------------------- 
|--------------------------------------------------------- 

Chorus: 

|------------------------------------------------------------------------- 
|------------------------------------------------------------------------- 
|-11-11-11-11-11-11-11-11-9-9-9-9-9-9-9-9-7-7-7-7-7-7-7-7-4-4-4-4-4-4-4-4- 
|-9--9--9--9--9--9--9--9--7-7-7-7-7-7-7-7-5-5-5-5-5-5-5-5-2-2-2-2-2-2-2-2- 
|-9--9--9--9--9--9--9--9--7-7-7-7-7-7-7-7-5-5-5-5-5-5-5-5-2-2-2-2-2-2-2-2- 
|-9--9--9--9--9--9--9--9--7-7-7-7-7-7-7-7-5-5-5-5-5-5-5-5-2-2-2-2-2-2-2-2- 

Outro: 
distorted guitar, heavy palm-muting 

|----------------------------------------------------------------- 
|----------------------------------------------------------------- 
|-7-7-7-7-7-7-7-7-6-6-6-6-9-9-9-9-7-7-7-7-7-7-7-7-7-7-7-7-7-7-7-7- 
|-0-0-0-0-0-0-0-0-0-0-0-0-0-0-0-0-0-0-0-0-0-0-0-0-0-0-0-0-0-0-0-0- 
|----------------------------------------------------------------- 
|----------------------------------------------------------------- 

|----------------------------------------------------------------- 
|----------------------------------------------------------------- 
|-4-4-4-4-4-4-4-4-4-4-4-4-4-4-0-0--------------------------------- 
|-0-0-0-0-0-0-0-0-0-0-0-0-0-0-5-5-4-4-4-4-4-4-4-4-4-4-4-4-4-4-4-4- 
|----------------------------------------------------------------- 
|----------------------------------------------------------------- 
  
Comments