Jimmy Eat World - Your House Chords & Tabs

 

Your House Chords & Tabs

Jimmy Eat World Chords & Tabs

Version: 2 Type: Bass Tab 0 ratings
1 star 2 stars 3 stars 4 stars 5 stars
comments

Your House Bass Tab

Jimmy eat world - your house

Verse:
G|-------------------------| or G|--------------------------|
D|-------------------------|    D|-00-00-00-00--------------|
A|-55-55-55-55-------------|    A|-------------00-00-00-00--|
E|-------------55-55-55-55-|    E|--------------------------| (x2)
(both is correct, play what you like better)

Chorus:
G|------------------------------------------|
D|------------------------------------------|
A|---------------55-55----------------------|
E|-33-33--55-55---------77-77--33-33--55-55-|
[ Tab from: http://www.guitartabs.cc/tabs/j/jimmy_eat_world/your_house_btab_ver_2.html ]
Verse: (just like before, but now 3 or 4 times. I'm sure 
        you'll get it)

Chorus:
G|-----------------------------|
D|-----------------------------|
A|---------------55-55---------|
E|-33-33--55-55---------77-77--| (3 or 4 times, you'll get it)

Bridge: (You could play nothing but I always play this. it sounds good)
G|-------------------------|
D|-------------------------|
A|--------------5~---------|
E|--3~----5~----------7~---| (~ means let note ring, figure out how often
                              you have to play the bridge)

Verse again 
Chorus until song ends

Enjoy playing this song.
Comments