Jimmy Eat World - Your House Chords & Tabs

 

Your House Chords & Tabs

Jimmy Eat World Chords & Tabs

Version: 1 Type: Bass Tab 0 ratings
1 star 2 stars 3 stars 4 stars 5 stars
comments

Your House Bass Tab

Your House (bass)
Jimmy Eat World

Short guitar intro

G|-----------------------------------------
D|-----------------------------------------
A|--5-5--5-5--5-5--5-5--0-0--0-0--0-0--0-0-
D|-----------------------------------------

G|-----------------------------------------
D|-----------------------------------------
A|--5-5--5-5--5-5--5-5--0-0--0-0--0-0--0-0-
D|-----------------------------------------

G|-----------------------------------------
D|-----------------------------------------
A|------------0-0--0-0--5-5--5-5--2-2--2-2-
D|--5-5--5-5-------------------------------

G|----------------------------------------------------------------
D|----------------------------------------------------------------
A|------------0-0--0-0----5-5--5-5--5-5--5-5--0-0--0-0--0-0--0-0--
D|--5-5--5-5------------------------------------------------------

G|-----------------------------------------
D|-----------------------------------------
A|--5-5--5-5--5-5--5-5--0-0--0-0--0-0--0-0-
D|-----------------------------------------

G|-----------------------------------------
D|-----------------------------------------
A|--5-5--5-5--5-5--5-5--0-0--0-0--0-0--0-0-
D|-----------------------------------------

G|-----------------------------------------
D|-----------------------------------------
A|------------0-0--0-0--5-5--5-5--2-2--2-2-
D|--5-5--5-5-------------------------------

G|-----------------------------------------
D|-----------------------------------------
A|------------0-0--0-0--5-5--5-5--2-2--2-2-
D|--5-5--5-5-------------------------------

G|----------------------
D|----------------------
A|------------0-0--0-0--
D|--5-5--5-5------------

G|--------------------------------------
D|--------------------------------------
A|--------------------------------------
D|--5--------2--------0--------5--------

G|--------------------------------------
D|--------------------------------------
A|--------------------------------------
D|--5--------2--------0--------5--------
[ Tab from: http://www.guitartabs.cc/tabs/j/jimmy_eat_world/your_house_btab.html ]
G|------------------------------
D|------------------------------
A|------------------------------
D|--2-2-2--2-2-2--5-5-5--5-5-5--

G|------------------------------
D|------------------------------
A|------------------------------
D|--2-2-2--2-2-2--5-5-5--5-5-5--

G|------------------------------
D|------------------------------
A|------------------------------
D|--2-2-2--2-2-2--5-5-5--5-5-5--

G|------------------------------
D|------------------------------
A|------------------------------
D|--2-2-2--2-2-2--5-5-5--5-5-5--

G|-----------------------------------------
D|-----------------------------------------
A|--5-5--5-5--5-5--5-5--0-0--0-0--0-0--0-0-
D|-----------------------------------------

G|-----------------------------------------
D|-----------------------------------------
A|--5-5--5-5--5-5--5-5--0-0--0-0--0-0--0-0-
D|-----------------------------------------

G|-----------------------------------------
D|-----------------------------------------
A|------------0-0--0-0--5-5--5-5--2-2--2-2-
D|--5-5--5-5-------------------------------

G|-----------------------------------------
D|-----------------------------------------
A|------------0-0--0-0--5-5--5-5--2-2--2-2-
D|--5-5--5-5-------------------------------

G|-----------------------------------------
D|-----------------------------------------
A|------------0-0--0-0--5-5--5-5--2-2--2-2-
D|--5-5--5-5-------------------------------

G|----------------------
D|----------------------
A|------------0-0--0-0--
D|--5-5--5-5------------

G|----------------------------------------
D|----------------------------------------
A|-5-5--5-5--5-5--5-5------------0-0--0-0-
D|---------------------5-5--5-5-----------

G|----------------------------------------
D|----------------------------------------
A|-5-5--5-5--5-5--5-5------------0-0--0-0-
D|---------------------5-5--5-5-----------

G|----------------------------------------
D|----------------------------------------
A|-5-5--5-5--2-2--2-2------------0-0--0-0- Repeat to fade out
D|---------------------5-5--5-5-----------


That's the whole song and should be 99 - 100% acurate.

Comments, email me at damagecase14@yahoo.com
Comments