Jimmy Eat World - Work Chords & Tabs

 

Work Chords & Tabs

Jimmy Eat World Chords & Tabs

Version: 2 Type: Tab 0 ratings
1 star 2 stars 3 stars 4 stars 5 stars
comments

Work Tab

   
Jimmy Eat World
"Work"

this is one of my favourite song on the new album, so
I wanted to tab it and I hope that this will help everyone a bit.
"Futures" is the first album that is all in played down half-a-step

first of all, tune down your guitar half a step and then drop-d
(actually a drop-C#...)

intro/verse

eb|-----------------------------------|
Bb|-----------------------------------|
F#|--------2-------2-----2---2---2----|
Db|------0-------0-----2---2---2---2--|
Ab|----4-------0-----0----------------|
Db|--4-------0------------------------|

If you only once would let me, only just one time
then be happy with the consequence with whatever's gonna happen tonight
Don't think we're not serious when's it ever not
The love we make is killing its take, a game to play along

eb|--------------------------------|
Bb|--------------------------------|
F#|--------------------------------|
Db|--4-4-4-4-4-4-4--2-2-2-2-2-2-2--|
Ab|--x-x-x-x-x-x-x--0-0-0-0-0-0-0--|
Db|--4-4-4-4-4-4-4--0-0-0-0-0-0-0--|

All I can say...

eb|--------------------------------|
Bb|--------------------------------|
F#|--------------------------------|
Db|--4-4-4-4-4-4-4-4--2-2-2-2-2-2--|
Ab|--4-4-4-4-4-4-4-4--0-0-0-0-0-0--|
Db|--4-4-4-4-4-4-4-4--0-0-0-0-0-0--|

I should of said 

              A5
can we take a ride?
           E5		       F#5
Get out of this place while we still have time
[ Tab from: http://www.guitartabs.cc/tabs/j/jimmy_eat_world/work_tab_ver_2.html ]
Guitar 1
eb|------------------|
Bb|------------------|
F#|------------------|
Db|--7-7-7----7-7-7--|
Ab|--7-7-7----7-7-7--|
Db|--7-7-7----7-7-7--|


Guitar 2
eb|-------------------|
Bb|-------------------|
F#|--9-9-9----9-9/11--|
Db|--x-x-x----x-x/x---|
Ab|--7-7-7----7-7/9---|
Db|-------------------|

Repeat intro

(no guitar)
All the best Dj's are saving the slowest song for last

(repeat intro)
when the dance is through it's me and you
come on, would it really be so bad
The things we think might be the same but I won't falthom more
It's just not me to wear it on my sleeve, count on the for sure


F#5       D5 (e on 4th)
All I can say
F#          D5 (e on 4th)                A5	
I should of said,          can we take a ride?
	   E5		       F#5
Get out of this place while we still have time
D5		   A5
D'you wanna take a ride?
	   E5		       F#
Get out of this place while we still have time
	  D5
yeah - We still have time

SOLO

Can't say I was never wrong but some blame rests on you
Work and play but never okay to mix the way we do...

...................................

All the rest is too easy to understand and I'm too lazy to tab the solo
maybe I'll tab all the rest later,  now this is good to start with this
great song, go and get the new Jimmy Eat World record, they do it 
again, and that's a great album as always...
eNRICO
Comments