Jimmy Eat World - Work Chords & Tabs

 

Work Chords & Tabs

Jimmy Eat World Chords & Tabs

Version: 1 Type: Tab 1 rating
1 star 2 stars 3 stars 4 stars 5 stars
comments

Work Tab

   
Standard Tuning EADGBe
Song is played in F#
Use slight distortion throughout
Listen to song for timing.

Intro and Verse:

 F Minor C# Major G# Major
|----------------------------------|
|------9---------------------------|
|----10-------10------13--13--13---|
|--10-------11------13--13--13--13-|
|-8-------11------11---------------|
|--------9-------------------------| x10

Bridge:
  F#               C#
|-------------------------------------------------|
|-------------------------------------------------|
|-10-10-10-10-10-10-10-10-------------------------|
|-10-10-10-10-10-10-10-10-11-11-11-11-11-11-11-11-|
|-8--8--8--8--8--8--8--8--11-11-11-11-11-11-11-11-|
|-------------------------9--9--9--9--9--9--9--9--| x2
[ Tab from: http://www.guitartabs.cc/tabs/j/jimmy_eat_world/work_tab.html ]
Chorus: (Strum chords)
   G#   D#    F#   C#
|-------------------------------|
|-------------------------------|
|--13---------10----------------|
|--13---13----10---11-----------|
|--11---13----8----11-----------|
|-------11---------9------------| x2

Solo:
|-------------------------------------------------------------|
|-----------------------------------------7-7-----------------|
|-9-9-9-9-9-7-6-7-6-------------9-9-9-9-9--9-9--7-6-7---9-----|
|--------------------7--6-7-9-------------------------7-------|
|-------------------------------------------------------------|
|-------------------------------------------------------------|

|-------------------------------------------------------------|
|-------------------------------------------------------------|
|-9-9-9-9-9-7-6-7-9-9-9-9-9-7-6-7-6---------------------------|
|-----------------------------------7-6-7-9-7--9-7-6-7-6------|
|-------------------------------------------------------9-7---|
|-------------------------------------------------------------|

please rate this tab
Feel free to email : jak_d_lad@hotmail.com
Comments