Jimmy Eat World - The Middle Chords & Tabs

 

The Middle Chords & Tabs

Jimmy Eat World Chords & Tabs

Version: 4 Type: Tab 0 ratings
1 star 2 stars 3 stars 4 stars 5 stars
comments

The Middle Tab

From:Andrew Lee Summers
Band:Jimmy Eat World
Song:The Middle
Album:Jimmy Eat World
Track:3

This is a kick ass song and its my favourite on their self titled album!!!

Intro

E-----------------------------------------------------------
B-----------------------------------------------------------
G-----------------------------------------------------------
D--444------------------------------------------------------
A------5555555555555555-777-4444444444444444-55555555-444444
E-----------------------------------------------------------


E-----------------------------------------------------------
B-----------------------------------------------------------
G-----------------------------------------------------------
D-----------------------------------------------------------
A--44-5555555555555555--------------------------------------
E-----------------------------------------------------------


Verse

E-----------------------------------------------------------
B-----------------------------------------------------------
G--7-----------------------7--------------------------X2----
D--7--x16--7-------5-------7--------------------------------
A--5-------7--x16--5--x16--5--x16---------------------------
E----------5-------3----------------------------------------
Hey, dont write yourself off yet............................
............................................When you're away

Chorus

E-----------------------------------------------------------
B-----------------------------------------------------------
G--7-----------------------7--------------------------X2----
D--7--x16--7-------5-------7--x16---------------------------
A--5-------7--x16--5--x16--5--------------------------------
E----------5-------3----------------------------------------
It just takes some time.....................................
.......................Everything everything will be alright

Verse 2

E-----------------------------------------------------------
B-----------------------------------------------------------
G--7-----------------------7--------------------------X2----
D--7--x16--7-------5-------7--x16---------------------------
A--5-------7--x16--5--x16--5--------------------------------
E----------5-------3----------------------------------------
You know they're all the same...............................
................................Good enough for someone else

Chorus 

E-----------------------------------------------------------
B-----------------------------------------------------------
G--7-----------------------7--------------------------X2----
D--7--x16--7-------5-------7--x16---------------------------
A--5-------7--x16--5--x16--5--------------------------------
E----------5-------3----------------------------------------
It just takes some time.....................................
.....................Everything everything will be alright  

Solo
[ Tab from: http://www.guitartabs.cc/tabs/j/jimmy_eat_world/the_middle_tab_ver_4.html ]
E-----------------------------------------------------------
B-----------------------------------------------------------
G-----------------------------------------------------------
D-----------------------------------------------------------
A--Slide finger down string while plucking from 17th fret---
E-----------------------------------------------------------


E-----------------------------------------------------------
B-----------------------------------------------------------
G-----------------------------------------------------------
D-----------------------------------------------------------
A--4-5-4-5-4-7-5-4-5-4-5-7-5-0--Slide finger again from 17th
E-----------------------------------------------------------


E-----------------------------------------------------------
B-----------------------------------------------------------
G-----------------------------------------------------------
D-----------------------------------------------------------
A--4-5-4-5-4-5555-7777-9999-10-9-10-12-10-9-10-9-10-12-10-9-
E-----------------------------------------------------------


E-----------------------------------------------------------
B-----------------------------------------------------------
G-----------------------------------------------------------
D---------12-12-12-12-14-14-14-14-16-16-16-16-17-17-17-17---
A--10-9-0---------------------------------------------------
E ----------------------------------------------------------


E-----------------------------------------------------------
B-----------------------------------------------------------
G--19-19-19-19-18-18-18-18-16-16-16-16-14-14-14-14----------
D--------------------------------------------------12-11-9-7
A-----------------------------------------------------------
E-----------------------------------------------------------


E-----------------------------------------------------------
B-----------------------------------------------------------
G--6-4------------------------------------------------------
D-----------------------------------------------------------
A-----------------------------------------------------------
E-----------------------------------------------------------

REPEAT VERSE 1

Chorus

E-----------------------------------------------------------
B-----------------------------------------------------------
G--7-----------------------7--------------------------X2----
D--7--x16--7-------5-------7--x16---------------------------
A--5-------7--x16--5--x16--5--------------------------------
E----------5-------3----------------------------------------
It just takes some time.....................................
.......................Everything everything will be alright


Lyrics

Hey, dont write yourself off yet, its only in your head you feel left out, or looked down on,
Just try your best, try everything you can, and dont worry what they tell themselves when your away,

It just takes some time, little girl your in the middle of the ride,
everything everything will be just fine, 
everything everything will be will be all right.

Hey, you know they're all the same, you know your doing better on your own, so dont buy in,
live right now, just be yourself,   
It dosent matter if thats good enough for someone else.

It just takes some time, little girl your in the middle of the ride,
everything everything will be just fine,
everything everything will be all right all right!
Comments