Jimmy Eat World - The Middle Chords & Tabs

 

The Middle Chords & Tabs

Jimmy Eat World Chords & Tabs

Version: 15 Type: Tab 0 ratings
1 star 2 stars 3 stars 4 stars 5 stars
comments

The Middle Tab

i got this from the Conan O'Brien clip. The other guy who tried to tab
it doesn't appear to be 110% correct... i'm not saying this one is,
but its is definitely more accurate.

--------------------------------------------------------------
-2h3p2-0------------------------------------------------------
---------2h4p2-0----------------------------------------------
-----------------4h5p4-0-------4-----------------------------0
-------------------------4h5p4---5-4-5-4-5-7-5-4-5-4-5-4h5p4-0
-------------------------------------------------------------0

[ Tab from: http://www.guitartabs.cc/tabs/j/jimmy_eat_world/the_middle_tab_ver_15.html ]
----------------------------------------------------------------
-2h3p2-0--------------------------------------------------------
---------2h4p2-0------------------------------------------------
-----------------4h5p4-0-------4--------------------------------
-------------------------4h5p4---5-4-5-4-5(x8)-7(x8)-9(x8)-10-10
----------------------------------------------------------------


----------------------------------------------------------------
----------------------------------------------------------------
--------------------------------------7-7/9-9/11-11/12----------
---------------------------------------0---0----0---------------
-12-10-9-10-9-10-9-10-12-10-9-10-9-10---------------------------
----------------------------------------------------------------

trem picking
-11(x8)-9(x8)-7(x8)-5(x8)-3-2-----------------------------------
------------------------------5-3-2-0---------------------------
----------------------------------------------------------------
----------------------------------------------------------------
----------------------------------------------------------------

tabbed by: danny marren
Comments