Jimmy Eat World - The Middle Chords & Tabs

 

The Middle Chords & Tabs

Jimmy Eat World Chords & Tabs

Version: 1 Type: Tab 0 ratings
1 star 2 stars 3 stars 4 stars 5 stars
comments

The Middle Tab

#----------------------------------PLEASE NOTE--------------------------------#
#This file is the author's own work and represents their interpretation of the#
#song. You may only use this file for private study, scholarship, or research.#
#-----------------------------------------------------------------------------#
#-- File created with Instab - http://www.pconline.com/~smcarey/instab.html --#
#-----------------------------------------------------------------------------#

Author/Artist: Jimmy Eat World
Title: The Middle
Album: Bleed Ameican
Transcribed by: Jonathan Meisburg
Email: pbpaintball@yahoo.com


Intro:
------------------------------------------------------------------------------
------------------------------------------------------------------------------
------------------------------------------------------------------------------
------------------------------------------------------------------------------
-99-5555555555-9999-77----------------555555554444444455555555----------------
-----------------------99999999999999-----------------------------------------
                                                                              
Verse:
------------------------------------------------------------------------------
------------------------------------------------------------------------------
------------------------------------------------------------------------------ x2
-7777777777777777-----------------------------------7777777777777777----------
-5555555555555555-7777777777777777-5555555555555555-5555555555555555----------
------------------5555555555555555-3333333333333333---------------------------
                                                                              
Chorus:
------------------------------------------------------------------------------
------------------------------------------------------------------------------
------------------------------------------------------------------------------ x2
-7--------------------------7-------------------------------------------------
-5--------7--------5--------5-------------------------------------------------
----------5--------3----------------------------------------------------------
                                                                              


Solo:
------------------------------------------------------------------------------
------------------------------------------------------------------------------
-6h7p6------------------------------------------------------------------------
-------9-7h9p7\5----4h5p4-----------4-----------------------------------------
--------------------------5---4-5h7---5h7p5-4h5-5-7-5-4h5-4/5-5h7p5-4-5-------
------------------------------------------------------------------------------
                                                                              
[ Tab from: http://www.guitartabs.cc/tabs/j/jimmy_eat_world/the_middle_tab.html ]
------------------------------------------------------------------------------
------------------------------------------------------------------------------
-6h7p6------------------------------------------------------------------------
-------9-7h9p7\5----4h5p4-----------4-----------------------------------------
--------------------------5---4-5h7---5h7p5-4-55555555-77777777-99999999-10---
------------------------------------------------------------------------------
                                                                              

------------------------------------------------------------------------------
------------------------------------------------------------------------------
-----------------------------------------------9----9-11----11-12-11-12-------
--------------------------------------12----12--------------------------------
-10-12-10-9-10-9-10-12-10-9-10-9----------------------------------------------
---------------------------------10------10------10------10-------------------
                                                                              

-1010101010101010-99999999-77777777-55555555-3-2-0----------------------------
-1010101010101010-99999999-77777777-55555555-3-3-0-3-2------------------------
---------------------------------------------------4-2------------------------
-------------------------------------------------------6----------------------
-------------------------------------------------------4----------------------
------------------------------------------------------------------------------
                   

Lyrics:
Hey, don't write yourself off yet.
It's only in your head you feel left out or
looked down on.
Just try your best, try everything you can.
And don't you worry what they tell themselves when you're away.
It just takes some time, little girl you're in the middle, it'll up the ride.
Everything will be just fine, everything will be allright.
Hey, you know they're all the same.
You know you're doing better on your own, so don't buy in.
Live right now.
Yeah, just be yourself.
It doesn't matter if it's good enough for someone else.
It just takes some time, little girl you're in the middle of the ride.
Everything will be just fine, everything will be allright.
It just takes some time, little girl you're in the middle of the ride.
Everything will be just fine, everything will be allright.
Hey, don't write yourself off yet.
It's only in your head you feel left out or
looked down on.
Just do your best, do everything you can.
And don't you worry what the bitter hearts are gonna say.
It just takes some time, little girl you're in the middle of the ride.
Everything will be just fine, everything will be allright.
It just takes some time, little girl you're in the middle of the ride.
Everything will be just fine, everything will be allright.
             
Comments