Jimmy Eat World - The Middle Acoustic Chords & Tabs

 

The Middle Acoustic Chords & Tabs

Jimmy Eat World Chords & Tabs

Version: 1 Type: Tab 0 ratings
1 star 2 stars 3 stars 4 stars 5 stars
comments

The Middle Acoustic Tab

   
ARTIST:JIMMY EAT WORLD
SONG:THE MIDDLE(ACCOUSTIC VERSION)
ALBUM:GOOD TO GO EP(RELEASED ONLY JAPAN)
TABBER:JAPANESE182

INTRO - ALL PALM MUTE
e|-----------------------------------------------------|
B|-----------------------------------------------------|
G|-----------------------------------------------------|
D|-4-4-------------------4-4-4-4-4---------------------|
A|-----5-5-5-5-5-5-5-5-5-----------7-7-4-4-4-4-4-4-4-4-|
E|-----------------------------------------------------|

e|-------------------------------------------------|
B|-------------------------------------------------|
G|-------------------------------------------------|
D|-5-5-5-5-5-5-5-5-4-4-4-4-4-4-4-4-5-5-5-5-5-5-5-5-|
A|-------------------------------------------------|
E|-------------------------------------------------|

VERSE - PLAM MUTE
e|--------------------------------------------------------------------|
B|--------------------------------------------------------------------|
G|-7-7-7-7-7-7-7-7------------------------------------7-7-7-7-7-7-7-7-|
D|-x-x-x-x-x-x-x-x--7-7-7-7-7-7-7-7--5-5-5-5-5-5-5-5--x-x-x-x-x-x-x-x-|
A|-5-5-5-5-5-5-5-5--x-x-x-x-x-x-x-x--x-x-x-x-x-x-x-x--5-5-5-5-5-5-5-5-|
E|------------------5-5-5-5-5-5-5-5--3-3-3-3-3-3-3-3------------------|X2
[ Tab from: http://www.guitartabs.cc/tabs/j/jimmy_eat_world/the_middle_acoustic_tab.html ]
CHORUS
e|-5-5-5-5--5-5-5-5--3-3-3-3--5-5-5-5-|
B|-7-7-7-7--7-7-7-7--3-3-3-3--7-7-7-7-|
G|-7-7-7-7--6-6-6-6--4-4-4-4--7-7-7-7-|
D|-7-7-7-7--7-7-7-7--5-5-5-5--7-7-7-7-|
A|-5-5-5-5--7-7-7-7--5-5-5-5--5-5-5-5-|
E|----------5-5-5-5--3-3-3-3----------|

VERSE
CHORUS X2

SOLO
e|---------------------------------------------------5-5---7-5---5-9-5---|
B|-----5------5----------3-5-3------3-5-3----------5-----5-----5-------5-|
G|-4-6----7-6----7-6h7-7\------2--6-------6-7--6h7-----------------------|
D|-----------------------------------------------------------------------|
A|-----------------------------------------------------------------------|
E|-----------------------------------------------------------------------|

e|-10-----10-----10-----10-----10-----10---|-10-----10-----10-----10-----10-----10---|
B|----8-8----8-8----8------8-8----8-8----8-|----7-7----7-7----7------7-7----7-7----7-|
G|-----------------------------------------|-----------------------------------------|
D|-----------------------------------------|-----------------------------------------|
A|-----------------------------------------|-----------------------------------------|
E|-----------------------------------------|-----------------------------------------|

e|----------------------------|----------------|-----------------|
B|----------------------------|----------------|-----------------|
G|-9--9--7--7--6--6-----------|----------------|-----------------|
D|-------------------9--9--7--|-5--4--2--------|-----------------|
A|----------------------------|----------5--4--|-5---------------|
E|----------------------------|----------------|-----------------|
Comments