Jimmy Eat World - Sweetness Chords & Tabs

 

Sweetness Chords & Tabs

Jimmy Eat World Chords & Tabs

Version: 10 Type: Tab 0 ratings
1 star 2 stars 3 stars 4 stars 5 stars
comments

Sweetness Tab

   
I made this tab by combining some tabs that seemed correct

Jimmy Eat World - Sweetness  
Drop-D Tuning (D A D G B E) 

Intro: 
|-3-3-3-3-3-3-3-3-3-3-3-3- 
|-6-6-6-6-6-6-6-6-6-6-6-6- 
|-5-5-5-5-5-5-5-5-5-5-5-5- 
|-3-3-3-3-3-3-3-3-3-3-3-3- 
|-3-3-3-3-3-3-3-3-3-3-3-3- 
|-3-3-3-3-3-3-3-3-3-3-3-3- 

Verse: 
|-3333333333333333--------------------------------- 
|-6666666666666666-5-5-5-5-5-5-5-5-5-5-5-5-5-5-5-5-
|-5555555555555555-x-x-x-x-x-x-x-x-x-x-x-x-x-x-x-x-
|-3333333333333333-2-2-2-2-2-2-2-2-2-2-2-2-2-2-2-2- 
|-3333333333333333-0-0-0-0-0-0-0-0-0-0-0-0-0-0-0-0- 
|-3333333333333333-0-0-0-0-0-0-0-0-0-0-0-0-0-0-0-0- 
                  [---------Distortion------------]

Chorus:
|---------------------------------------------------------
|---------------------------------------------------------
|-----------------------------------------------9-------9-
|-8-8-8-8-8-8-8-8-10-10-10-10-10-10-10-10-0-0-0-x-0-0-0-x- 
|-8-8-8-8-8-8-8-8-10-10-10-10-10-10-10-10-0-0-0-7-0-0-0-7-
|-8-8-8-8-8-8-8-8-10-10-10-10-10-10-10-10-0-0-0---0-0-0---

|-------------------------------------------- 
|-------------------------------------------- 
|-------------------------------------------- 
|-88888888-1010101010101010-3333333333333333- 
|-88888888-1010101010101010-3333333333333333- 
|-88888888-1010101010101010-3333333333333333- 
[ Tab from: http://www.guitartabs.cc/tabs/j/jimmy_eat_world/sweetness_tab_ver_10.html ]
Interlude:
|----------------------------------------------------------------- 
|----------------------------------------------------------------- 
|----------------------------------------------------------------- 
|-5-5-5-5-5-5-5-5-8-8-8-8-8-8-8-8-3-3-3-3-3-3-3-3-3-3-3-3-3-3-3-3- 
|-5-5-5-5-5-5-5-5-8-8-8-8-8-8-8-8-3-3-3-3-3-3-3-3-3-3-3-3-3-3-3-3- 
|-5-5-5-5-5-5-5-5-8-8-8-8-8-8-8-8-3-3-3-3-3-3-3-3-3-3-3-3-3-3-3-3- 

Play that 2 times, then enter with this
Guitar 2 
|----------------------------------------------------------------------- 
|----------------------------------------------------------------------- 
|-10-10-12--12\14-10-14/12/10/9-10-5--12-14-10-12\14-10-14/12/10/9-10-5- 
|-x--x--x---x--x--x--x--x--x--x-x--x--x--x--x--x--x--x--x--x--x--x-x--x- 
|-8--8--10--10\12-8--12/10/8/-7\8/-3--10-12-8--10\12-8--12/10/8/-7\8/-3- 
|----------------------------------------------------------------------- 

Outro: 
|-------------------------------------------- 
|-------------------------------------------- 
|-------------------------------------------- 
|-88888888-1010101010101010-3333333333333333- 
|-88888888-1010101010101010-3333333333333333- 
|-88888888-1010101010101010-3333333333333333- 

Lyrics:
Verse 
are you listening? 
sing it back 
straight from your deadly rhyme wines 
up and i would do fine 

Chorus 
i was spinning free 
with a little sweet and simple numbing me 

Verse 
are you listening? 
sing it back 
tell me "what do i need?" 
what, was this the meaning? 

Chorus 

Verse 
stumbled to your car 
sinking into sweet uncertainty 

Interlude 

Break (play intro) 

Interlude 

and you're listening (are you listening?) 
sing it back 
i'm still running away 
i won't play your hide and seek game 

Chorus 

but i did say dance 
the sweetness will not be concerned with me 
no, the sweetness will not be concerned with me 
no, the sweetness will not be concerned with me
Comments