Jimmy Eat World - Salt Sweet Sugar Chords & Tabs

 

Salt Sweet Sugar Chords & Tabs

Jimmy Eat World Chords & Tabs

Version: 1 Type: Tab 1 rating
1 star 2 stars 3 stars 4 stars 5 stars
comments

Salt Sweet Sugar Tab

   
#----------------------------------PLEASE NOTE---------------------------------#
#This file is the author's own work and represents their interpretation of the #
#song. You may only use this file for private study, scholarship, or research. #
#------------------------------------------------------------------------------#
Salt Sweet Sugar - Jimmy Eat World

INTRO
E|------------------------------------------------------------------|
B|---4-6---4-6---4---4-6---4-6---4---4-6---4-6---4------------------|
G|-------------------------------------------------22222222----4444-|
D|-44----44----44--00----00----00--44----44----44--2222222200004444-|
A|-44----44----44--00----00----00--44----44----44--0000000000002222-|
D|-44----44----44--00----00----00--44----44----44----------0000-----|

VERSE
E|------------------------------------------------------------------|
B|------------------------------------------------------------------|
G|-------------------------------------------------4-4-4-4-4-4-4-4--|
D|-4-4-4-4-4-4-4-4-4-4-4-4-4-4-4-4-0-0-0-0-0-0-0-0-4-4-4-4-4-4-4-4--|
A|-4-4-4-4-4-4-4-4-4-4-4-4-4-4-4-4-0-0-0-0-0-0-0-0-2-2-2-2-2-2-2-2--|
D|-4-4-4-4-4-4-4-4-4-4-4-4-4-4-4-4-0-0-0-0-0-0-0-0------------------|
pm . . . . . . . . . . . . . . . . . . . . . . . . . . . . . . . .

E|------------------------------------------------------------------|
B|-----------------------------------------------------------4~4~4~-|
G|-------------------------------------------------4-4-4-4-4--------|
D|-4-4-4-4-4-4-4-4-4-4-4-4-4-4-4-4-0-0-0-0-0-0-0-0-4-4-4-4-4--------|
A|-4-4-4-4-4-4-4-4-4-4-4-4-4-4-4-4-0-0-0-0-0-0-0-0-2-2-2-2-2--------|
D|-4-4-4-4-4-4-4-4-4-4-4-4-4-4-4-4-0-0-0-0-0-0-0-0------------------|
pm . . . . . . . . . . . . . . . . . . . . . . . . . . . . . 

E|------------------------------------------------------------------|
B|------------------------------------------------------------------|
G|-------------------------------------------------4-4-4-4-4-4-4-4--|
D|-4-4-4-4-4-4-4-4-4-4-4-4-4-4-4-4-0-0-0-0-0-0-0-0-4-4-4-4-4-4-4-4--|
A|-4-4-4-4-4-4-4-4-4-4-4-4-4-4-4-4-0-0-0-0-0-0-0-0-2-2-2-2-2-2-2-2--|
D|-4-4-4-4-4-4-4-4-4-4-4-4-4-4-4-4-0-0-0-0-0-0-0-0------------------|
pm . . . . . . . . . . . . . . . . . . . . . . . . . . . . . . . .
[ Tab from: http://www.guitartabs.cc/tabs/j/jimmy_eat_world/salt_sweet_sugar_tab.html ]
E|------------------------------------------------------------------|
B|-------------------------------------------------4-4-4-4-4-4-6-6--|
G|------------------------------------------------------------------|
D|-4-4-4-4-4-4-4-4-4-4-4-4-4-4-4-4-0-0-0-0-0-0-0-0------------------|
A|-4-4-4-4-4-4-4-4-4-4-4-4-4-4-4-4-0-0-0-0-0-0-0-0------------------|
D|-4-4-4-4-4-4-4-4-4-4-4-4-4-4-4-4-0-0-0-0-0-0-0-0------------------|
pm . . . . . . . . . . . . . . . . . . . . . . . . 
           
CHORUS
E|------------------------------------------------------------------|
B|---4-6---4-6---4---4-6---4-6---4---4-6---4-6---4------------------|
G|-------------------------------------------------22222222----4444-|
D|-44----44----44--00----00----00--44----44----44--2222222200004444-|
A|-44----44----44--00----00----00--44----44----44--0000000000002222-|
D|-44----44----44--00----00----00--44----44----44----------0000-----|

E|------------------------------------------------------------------|
B|---4-6---4-6---4---4-6---4-6---4---4-6---4-6---4------------------|
G|-------------------------------------------------22222222----4444-|
D|-44----44----44--00----00----00--44----44----44--2222222200004444-|
A|-44----44----44--00----00----00--44----44----44--0000000000002222-|
D|-44----44----44--00----00----00--44----44----44----------0000-----|

[Play Verse x1]

[Play Chorus x1]

INTERLUDE
E|------------------------------------------------------------------|
B|------------------------------------------------------------------|
G|------------------------------------------------------------------|
D|-4-4-4-4-4-4-4-4-4-4-4-4-4-4-4-4-0-0-0-0-0-0-0-0-0-0-0-0-0-0-0-0--|
A|-4-4-4-4-4-4-4-4-4-4-4-4-4-4-4-4-0-0-0-0-0-0-0-0-0-0-0-0-0-0-0-0--|
D|-4-4-4-4-4-4-4-4-4-4-4-4-4-4-4-4-0-0-0-0-0-0-0-0-0-0-0-0-0-0-0-0--|

E|------------------------------------------------------------------|
B|------------------------------------------------------------------|
G|-9-9-9-9-9-9-9-9-7-7-7-7-6-6-6-6-7-7-7-7-7-7-7-7-4-4-4-4-4-4-4-4--|
D|-x-x-x-x-x-x-x-x-x-x-x-x-x-x-x-x-x-x-x-x-x-x-x-x-x-x-x-x-x-x-x-x--|
A|-7-7-7-7-7-7-7-7-5-5-5-5-4-4-4-4-5-5-5-5-5-5-5-5-2-2-2-2-2-2-2-2--|
D|------------------------------------------------------------------|

E|------------------------------------------------------------------|
B|------------------------------------------------------------------|
G|------------------------------------------------------------------|
D|-4-4-4-4-4-4-4-4-4-4-4-4-4-4-4-4-0-0-0-0-0-0-0-0-0-0-0-0-0-0-0-0--|
A|-4-4-4-4-4-4-4-4-4-4-4-4-4-4-4-4-0-0-0-0-0-0-0-0-0-0-0-0-0-0-0-0--|
D|-4-4-4-4-4-4-4-4-4-4-4-4-4-4-4-4-0-0-0-0-0-0-0-0-0-0-0-0-0-0-0-0--|

E|------------------------------------------------------------------|
B|------------------------------------------------------------------|
G|-9-9-9-9-9-9-9-9-7-7-7-7-6-6-6-6-7-7-7-7-7-7-7-7-4-4-4-4-4-4-4-4--|
D|-x-x-x-x-x-x-x-x-x-x-x-x-x-x-x-x-x-x-x-x-x-x-x-x-x-x-x-x-x-x-x-x--|
A|-7-7-7-7-7-7-7-7-5-5-5-5-4-4-4-4-5-5-5-5-5-5-5-5-2-2-2-2-2-2-2-2--|
D|------------------------------------------------------------------|

SOLO
E|-------------------------------------------------------------------|
B|--------5-5--------------5577-----------5-5------------------------|
G|---4-6-4---6-4-6---446644----6644--4-6-4---6-4-6-4-4-4h6p4-4-4-6~--|
D|----------------------------------------------------------4--------|
A|-------------------------------------------------------------------|
D|-------------------------------------------------------------------|

E|-------------------------------------------------------------------|
B|--------5-5--------------5577-----------5-5------------------------|
G|---4-6-4---6-4-6---446644----6644--4-6-4---6-4-6-4-4-4h6p4-4-4-6~--|
D|----------------------------------------------------------4--------|
A|-------------------------------------------------------------------|
D|-------------------------------------------------------------------|

[Play Chorus x1]

END ON:

D|-44-|
A|-44-|
D|-44-|
Comments