Jimmy Eat World - Rockstar Chords & Tabs

 

Rockstar Chords & Tabs

Jimmy Eat World Chords & Tabs

Version: 1 Type: Tab 0 ratings
1 star 2 stars 3 stars 4 stars 5 stars
comments

Rockstar Tab

   
ROCKSTAR - Jimmy Eat World

By: Josh Recker - Pathetic@PunkJunk.COM 
Posted By: Alicia - queen_of_the_apes@hotmail.com

Standard Tuning

PM _ - Palm Mute
~ - Let Ring
H - Hammer On
P - Pull Off

Intro: Palm Mute where shown
e|-----------------------------------------------------------------
B|-----------------------------------------------------------------
G|-----------------------------------------------------------------
D|-----------------5-5-5-5-------------------------5-5-5-5---------
A|-3-3-3-3-3-3-3-3-3-3-3-3-5-5-5-5-3-3-3-3-3-3-3-3-3-3-3-3-5-5-5-5-
E|-0-0-0-0-1-1-1-1---------0-0-0-0-0-0-0-0-1-1-1-1---------3-3-3-3-
PM _______________ _______ _______________________ _______ _______

e|------------------------------------------------------------------
B|------------------------------------------------------------------
G|---------------------------------10-10-10-10-10-10-14-14-14-12-12-
D|-----------------5-5-5-5----------x--x--x--x--x--x--x--x--x--x--x-
A|-3-3-3-3-3-3-3-3-3-3-3-3-5-5-5-5--8--8--8--8--8--8-12-12-12-10-10-
E|-0-0-0-0-1-1-1-1---------0-0-0-0----------------------------------
PM _______________ _______ _______  

  Play this 3 times
e|------------------------------------------------------------
B|------------------------------------------------------------
G|-----------0-----------0--10-10-10-10-10-10-14-14-14-12-12--
D|---------3-----------3-----x--x--x--x--x--x--x--x--x--x--x--
A|-3-3-3-3-----3-3-3-3-------8--8--8--8--8--8-12-12-12-10-10--
E|-0-0-0-0-----0-0-0-0----------------------------------------
PM _______     _______

  Then play this once
e|-------------------------------|
B|-------------------------------|
G|-----------0-----------0--10-~-|
D|---------3-----------3-----x-~-|
A|-3-3-3-3-----3-3-3-3-------8-~-|
E|-0-0-0-0-----0-0-0-0-----------|
PM _______     _______

Verse:
e|-----------------------------------------------------------------------------------|
B|-----------------------------------------------------------------------------------|
G|-----------------------------------------------------------------------------------|
D|-10-10-10-10-10-10-10-10-10-10-10-10-10-10-10-10-8-8-8-8-8-8-8-8-8-8-8-8-8-8-7h8p7-| 
A|-8--8--8--8--8--8--8--8--10-10-10-10-10-10-10-10-8-8-8-8-8-8-8-8-8-8-8-8-8-8-------| 
E|-----------------------------------------------------------------------------------|
PM ___________________________________________________________________________
[ Tab from: http://www.guitartabs.cc/tabs/j/jimmy_eat_world/rockstar_tab.html ]
Guitar 2: Comes in at "Stop giving it up now..."
e|-----------------------------------------------|
B|-6---6---6---5---------------------------------|
G|---5---5---5---5...----------------------------|
D|-----------------------------------------------|
A|-----------------------------------------------|
E|-----------------------------------------------|

Riff Before Chorus:
e|-----------------------------------------------|
B|-6---6---5---5h6...----------------------------|
G|---5---5---5-----------------------------------|
D|-----------------------------------------------|
A|-----------------------------------------------|
E|-----------------------------------------------|

Chorus:
e|------------------------------------------------------------------| 
B|------------------------------------------------------------------| 
G|-----------------5-5-5-5-5-5-5-5-10-10-10-10-10-10-14-14-14-12-12-| 
D|-3-3-3-3-3-3-3-3-5-5-5-5-5-5-5-5-x--x--x--x--x--x---x--x--x--x--x-| 
A|-3-3-3-3-3-3-3-3-3-3-3-3-3-3-3-3-8--8--8--8--8--8--12-12-12-10-10-| 
E|-3-3-3-3-3-3-3-3--------------------------------------------------|  

Post-Chorus: Play once
e|------------------------------------------------------------
B|------------------------------------------------------------
G|-----------0-----------0--10-10-10-10-10-10-14-14-14-12-12--
D|---------3-----------3-----x--x--x--x--x--x--x--x--x--x--x--
A|-3-3-3-3-----3-3-3-3-------8--8--8--8--8--8-12-12-12-10-10--
E|-0-0-0-0-----0-0-0-0----------------------------------------
PM _______     _______

  Then Play this once
e|-----------------------------------------------------------------|
B|-----------------------------------------------------------------|
G|-----------0-----------0--10-10-10-10-10-10-14-14-14-12-12--10-~-|
D|---------3-----------3-----x--x--x--x--x--x--x--x--x--x--x---x-~-|
A|-3-3-3-3-----3-3-3-3-------8--8--8--8--8--8-12-12-12-10-10---8-~-|
E|-0-0-0-0-----0-0-0-0---------------------------------------------|
PM _______     _______

Outro:
e|---------------5---------------5---------------5---------------5-|
B|-6---6---6---6---6---6---6---6---6---6---6---6---6---6---6---6---| 
G|-5-5---5---5-----5-5---5---5-----5-5---5---5-----5-5---5---5-----| 
D|-----------------------------------------------------------------| 
A|-----------------------------------------------------------------| 
E|-----------------------------------------------------------------|

This should be pretty accurate, Email me w/ requests or anything. Later.
Comments