Jimmy Eat World - Polaris Chords & Tabs

 

Polaris Chords & Tabs

Jimmy Eat World Chords & Tabs

Version: 2 Type: Tab 0 ratings
1 star 2 stars 3 stars 4 stars 5 stars
comments

Polaris Tab

   
Hi,the song that i'm gonna tab is from the new Jimmy Eat World album;it's the 9th track,
and it's one of the most beautiful song of this band. I'm almost sure (i'm complitely
sure) that this tab is correct. enjoy the POLARIS!

Tuning (Eb Ab Db Gb Bb Eb)

Intro acoustic guitar. then the electric starts nd goes on during the verse
E|------------4--4----4--4-----2--2----2--2----4--4-----4--4----2--2----2-|
B|-----------2--2--2-2--2--2--2--2--2-2--2--2-2--2--2--2--2--2-2--2--2-2--|
G|----------4--4--4-4--4--4--4--4--4-4--4--4-4--4--4--4--4--4-4--4--4-4---|
D|-(666666)---------------------------------------------------------------|
A|--444444----------------------------------------------------------------|
E|------------------------------------------------------------------------|


E|--2-----0--0----0--0----7---5---5---------------------------------------|
B|-2---2-0--0--0-0--0--0-5-5-5-5-5-5-5------------------------------------|
G|4---4-2--2--2-2--2--2-4---4---4---4-------------------------------------|
D|------------------------------------------------------------------------|
A|------------------------------------------------------------------------|
E|------------------------------------------------------------------------|

This is the bass part during intro and verse. (during the verse you can also play this
chords : C#5 B5 A5 E5)

G|------------------------------------------------------------------------|
D|------------------------------------------------------------------------|
A|444244-44-4-244222022-22-2-022------------------------------------------|
E|------------------------------555055-55-5-0550000000000-----------------|

This is the second electric guitar during the verse
[ Tab from: http://www.guitartabs.cc/tabs/j/jimmy_eat_world/polaris_tab_ver_2.html ]
E|-----------------------------------------------------------------------|
B|--14------12-----10---9------------------------------------------------|
G|----13------11---- 9---9-----------------------------------------------|
D|------11------9---- 7---6----------------------------------------------|
A|-----------------------------------------------------------------------|
E|-----------------------------------------------------------------------|

The chorus is played in power chords. if you listen to the song, you understand wuen you
gotta change the chord. play this pert for 2 times.
E|------------------------------------------------------------------------|
B|------------------------------------------------------------------------|
G|999999-----------------99999--------------------------------------------|
D|999999-99999-777777777-99999-99999-7777777777---------------------------|
A|777777-99999-777777777-77777-99999-7777777777---------------------------|
E|-------77777-555555555-------77777-5555555555---------------------------|
  
The 2nd verse is like the 1st. after the 2nd chorus there's the bridge.
This is the bridge part (you gotta end the chorus ALWAYS with E5). Listen 
to the song to understand where you've to change.

E|------------------------------------------------------------------------|
B|------------------------------------------------------------------------|
G|111111111111111111--------------------------------11111111111111--------|
D|111111111111111111-7777777-11111111111111-9999999-11111111111111-7777777|
A|9-9-9-9-9-9-9-9-9--7777777-11111111111111-9999999-9-9-9-9-9-9-9--7777777|
E|-------------------5555555-9-9-9-9-9-9-9--7777777----------------5555555|

E|------------------------------------------------------------------------|
B|------------------------------------------------------------------------|
G|------------------------------------------------------------------------|
D|11111111111111-9999999-7777777------------------------------------------|
A|11111111111111-9999999-7777777------------------------------------------|
E|9-9-9-9-9-9-9--7777777-5555555-----------------------------------------|

Then you have to play the last chorus.
If you have something to ask you can write me;my e-mail address is
gabriele_allieri@hotmail.com. bye. gabri (glam fallen)
Comments