Jimmy Eat World - Polaris Chords & Tabs

 

Polaris Chords & Tabs

Jimmy Eat World Chords & Tabs

Version: 1 Type: Tab 0 ratings
1 star 2 stars 3 stars 4 stars 5 stars
comments

Polaris Tab

-----------------------------------------------------------------------------------------------
                                   Jimmy Eat World _ Polaris
-----------------------------------------------------------------------------------------------
 Tabbed By Nick  (Ncnick869@aol.com)


okay here it is, it sounds right to me....


Intro/Verse

e|------------------------------------------|
B|------------------------------------------|
G|------------------------------------------|
D|------------------------------------------|
A|-3-3-3-3-3-3-3-3--------------------------|
E|------------------------------------------|

e|-----3------3------------3------3---------|
B|------------------------------------------|
G|-3-5----3-5-----3-5--3-5----3-5----3-5----|
D|------------------------------------------|
A|------------------------------------------|
E|------------------------------------------|

e|-----1------1-----------1------1----------|
B|------------------------------------------|
G|-3-5----3-5----3-5--3-5----3-5----3-5-----|
D|------------------------------------------|
A|------------------------------------------|
E|------------------------------------------|

e|------------------------------------------|
B|-----4------4-----------4-----4-----------|
G|-3-5----3-5----3-5--3-5----3-5----3-5-----|
D|------------------------------------------|
A|------------------------------------------|
E|------------------------------------------|

[ Tab from: http://www.guitartabs.cc/tabs/j/jimmy_eat_world/polaris_tab.html ]
e|-----5------3------1-----------------------------|
B|------------------------4------2-----------------|
G|-3-5----3-5----3-5---3-5----3-5-----------   <---| repeat till chorus
D|-------------------------------------------------|
A|-------------------------------------------------|
E|-------------------------------------------------|

Guitar 2
e|-5----5----5----5---------------------------------|
B|--5----5----5----5--------------------------------|
G|---4----2----1----------------------------   <----| listen u can hear when
D|--------------------------------------------------|       this is played...
A|--------------------------------------------------|
E|--------------------------------------------------|

Chorus
e|------------------------------------------|
B|-----4-4-----4-4-----4-4-6-6-4-4----------|
G|-3-3-----3-3-----3-3----------------------|  x8
D|------------------------------------------|
A|------------------------------------------|
E|------------------------------------------|

Verse

Chorus

Interlude, which i didnt get yet sorry

then back to the chorus

End on
e|------------------------------------------------|
B|---4------4------4------4------4----------------|
G|-3---5--3---5--3---5--3---5--3---5--------  <---| Repeat then Fade.
D|------------------------------------------------|
A|------------------------------------------------|
E|------------------------------------------------|


thats all i got i didnt get the interlude yet, but u can figure it out..... thanks and enjoy.....
Comments