Jimmy Eat World - Nothing Wrong Chords & Tabs

 

Nothing Wrong Chords & Tabs

Jimmy Eat World Chords & Tabs

Version: 1 Type: Tab 0 ratings
1 star 2 stars 3 stars 4 stars 5 stars
comments

Nothing Wrong Tab

   
this song is brand new, go to
http://www.compsoc.nuigalway.ie/~vinnycoyne/05_-_nothing_wrong.mp3 to listen.

i didn't finish the solo yet, but will do soon.

------------------------------------------------------------------------------------

b = very slight bend


INTRO

E|----|-----3-------3b----3-------3b----3-------3b----------
B|----|-----3-------3b----3-------3b----3-------3b----------
G|----|-----0-------0-----0-------0-----0-------0-----------
D|0-0-|-2-2---2-0-2---2-2---2-0-2---2-2---2-0-2---5--5--0--0
A|0-0-|-2-2---2-0-2---2-2---2-0-2---2-2---2-0-2---5--5--0--0
D|0-0-|-2-2---2-0-2---2-2---2-0-2---2-2---2-0-2---5--5--0--0

E|----3-------3b----3-------3b----3-------3b---------
B|----3-------3b----3-------3b----3-------3b---------
G|----0-------0-----0-------0-----0-------0----------
D|2-2---2-0-2---2-2---2-0-2---2-2---2-0-2---2-2--0--0
A|2-2---2-0-2---2-2---2-0-2---2-2---2-0-2---2-2--0--0
D|2-2---2-0-2---2-2---2-0-2---2-2---2-0-2---2-2--0--0

VERSE 1

E|----------------------------------------------------
B|----------------------------------------------------
G|----------------------------------------------------
D|2-2---2-0-2---2-2---2-0-2---2-2---2-0-2---5--5--0--0
A|2-2---2-0-2---2-2---2-0-2---2-2---2-0-2---5--5--0--0
D|2-2---2-0-2---2-2---2-0-2---2-2---2-0-2---5--5--0--0

E|----------------------------------------------------
B|----------------------------------------------------
G|----------------------------------------------------
D|2-2---2-0-2---2-2---2-0-2---2-2---2-0-2---5--5--0--0
A|2-2---2-0-2---2-2---2-0-2---2-2---2-0-2---5--5--0--0
D|2-2---2-0-2---2-2---2-0-2---2-2---2-0-2---5--5--0--0

CHORUS

E|---------------------------------------------------------------------
B|---------------------------------------------------------------------
G|---------------------------------------------------------------------
D|5-5-|-0-0-0-0-0-0-0-0-0-0-0-0-0-0-0-0-2-2-2-2-2-2-2-2-5-5-5-5-5-5-5-5
A|5-5-|-0-0-0-0-0-0-0-0-0-0-0-0-0-0-0-0-2-2-2-2-2-2-2-2-5-5-5-5-5-5-5-5
D|5-5-|-0-0-0-0-0-0-0-0-0-0-0-0-0-0-0-0-2-2-2-2-2-2-2-2-5-5-5-5-5-5-5-5

E|---------------------------------------------------------------
B|---------------------------------------------------------------
G|---------------------------------------------------------------
D|0-0-0-0-0-0-0-0-0-0-0-0-0-0-0-0-2-2-2-2-2-2-2-2-5-5-5-5-5-5-5-5
A|0-0-0-0-0-0-0-0-0-0-0-0-0-0-0-0-2-2-2-2-2-2-2-2-5-5-5-5-5-5-5-5
D|0-0-0-0-0-0-0-0-0-0-0-0-0-0-0-0-2-2-2-2-2-2-2-2-5-5-5-5-5-5-5-5

E|----------------------------------------------------------------
B|----------------------------------------------------------------
G|5-5-5-5-5-5-5-5-5-5-5-5-5-5-5-5---------------------------------
D|5-5-5-5-5-5-5-5-5-5-5-5-5-5-5-5-2-2-2-2-2-2-2-2-5-5-5-5-5-5-5-5-
A|3-3-3-3-3-3-3-3-3-3-3-3-3-3-3-3-2-2-2-2-2-2-2-2-5-5-5-5-5-5-5-5-
D|--------------------------------2-2-2-2-2-2-2-2-5-5-5-5-5-5-5-5-

E|--------------------------------
B|--------------------------------
G|--------------------------------
D|0-0-0-0-0-0-0-0-0-0-0-0-0-0-0-0-
A|0-0-0-0-0-0-0-0-0-0-0-0-0-0-0-0-
D|0-0-0-0-0-0-0-0-0-0-0-0-0-0-0-0-

FILLER

E|----3b------3b----3b------3b----3b------3b---------
B|----3b------3b----3b------3b----3b------3b---------
G|----0-------0-----0-------0-----0-------0----------
D|2-2---2-0-2---2-2---2-0-2---2-2---2-0-2---2-2--0--0
A|2-2---2-0-2---2-2---2-0-2---2-2---2-0-2---2-2--0--0
D|2-2---2-0-2---2-2---2-0-2---2-2---2-0-2---2-2--0--0


[ Tab from: http://www.guitartabs.cc/tabs/j/jimmy_eat_world/nothing_wrong_tab.html ]
VERSE 2

E|----------------------------------------------------
B|----------------------------------------------------
G|----------------------------------------------------
D|2-2---2-0-2---2-2---2-0-2---2-2---2-0-2---5--5--0--0
A|2-2---2-0-2---2-2---2-0-2---2-2---2-0-2---5--5--0--0
D|2-2---2-0-2---2-2---2-0-2---2-2---2-0-2---5--5--0--0

E|----------------------------------------------------
B|----------------------------------------------------
G|----------------------------------------------------
D|2-2---2-0-2---2-2---2-0-2---2-2---2-0-2---5--5--0--0
A|2-2---2-0-2---2-2---2-0-2---2-2---2-0-2---5--5--0--0
D|2-2---2-0-2---2-2---2-0-2---2-2---2-0-2---5--5--0--0

CHORUS

BRIDGE

E|---------------------------------------------------------------
B|---------------------------------------------------------------
G|5-5-5-5-5-5-5-5-5-5-5-5-5-5-5-5-2-2-2-2-2-2-2-2-2-2-2-2-2-2-2-2
D|5-5-5-5-5-5-5-5-5-5-5-5-5-5-5-5-2-2-2-2-2-2-2-2-2-2-2-2-2-2-2-2
A|3-3-3-3-3-3-3-3-3-3-3-3-3-3-3-3-0-0-0-0-0-0-0-0-0-0-0-0-0-0-0-0
D|---------------------------------------------------------------

E|---------------------------------------------------------------
B|---------------------------------------------------------------
G|---------------------------------------------------------------
D|5-5-5-5-5-5-5-5-5-5-5-5-5-5-5-5-0-0-0-0-0-0-0-0-0-0-0-0-0-0-0-0
A|5-5-5-5-5-5-5-5-5-5-5-5-5-5-5-5-0-0-0-0-0-0-0-0-0-0-0-0-0-0-0-0
D|5-5-5-5-5-5-5-5-5-5-5-5-5-5-5-5-0-0-0-0-0-0-0-0-0-0-0-0-0-0-0-0

E|---------------------------------------------------------------
B|---------------------------------------------------------------
G|5-5-5-5-5-5-5-5-5-5-5-5-5-5-5-5-2-2-2-2-2-2-2-2-2-2-2-2-2-2-2-2
D|5-5-5-5-5-5-5-5-5-5-5-5-5-5-5-5-2-2-2-2-2-2-2-2-2-2-2-2-2-2-2-2
A|3-3-3-3-3-3-3-3-3-3-3-3-3-3-3-3-0-0-0-0-0-0-0-0-0-0-0-0-0-0-0-0
D|---------------------------------------------------------------

E|---------------------------------------------------------------
B|---------------------------------------------------------------
G|---------------------------------------------------------------
D|5-5-5-5-5-5-5-5-5-5-5-5-5-5-5-5-0-0-0-0-0-0-0-0-0-0-0-0-0-0-0-0
A|5-5-5-5-5-5-5-5-5-5-5-5-5-5-5-5-0-0-0-0-0-0-0-0-0-0-0-0-0-0-0-0
D|5-5-5-5-5-5-5-5-5-5-5-5-5-5-5-5-0-0-0-0-0-0-0-0-0-0-0-0-0-0-0-0

E|----3-------3b----3--------------3-------3b---------
B|----3-------3b----3--------------3-------3b---------
G|----0-------0-----0--------------0-------0----------
D|2-2---2-0-2---2-2---2-0-2-5--2-2---2-0-2---2-2--0--0
A|2-2---2-0-2---2-2---2-0-2-5--2-2---2-0-2---2-2--0--0
D|2-2---2-0-2---2-2---2-0-2-5--2-2---2-0-2---2-2--0--0

E|----3-------3b----3--------------3-------3b---------
B|----3-------3b----3--------------3-------3b---------
G|----0-------0-----0--------------0-------0----------
D|2-2---2-0-2---2-2---2-0-2-5--2-2---2-0-2---2-2------
A|2-2---2-0-2---2-2---2-0-2-5--2-2---2-0-2---2-2------
D|2-2---2-0-2---2-2---2-0-2-5--2-2---2-0-2---2-2------

CHORUS *add (E|----|) before chorus
(B|----|)
(G|----|)
(D|5-5-|)
(A|5-5-|)
(D|5-5-|)

E|----3-------3b----3-------3b----3-------3b-------------
B|----3-------3b----3-------3b----3-------3b-------------
G|----0-------0-----0-------0-----0-------0--------------
D|2-2---2-0-2---2-2---2-0-2---2-2---2-0-2---2-2--0--0-2-2
A|2-2---2-0-2---2-2---2-0-2---2-2---2-0-2---2-2--0--0-2-2
D|2-2---2-0-2---2-2---2-0-2---2-2---2-0-2---2-2--0--0-2-2
Comments