Jimmy Eat World - No Sensitivity Chords & Tabs

 

No Sensitivity Chords & Tabs

Jimmy Eat World Chords & Tabs

Version: 2 Type: Tab 0 ratings
1 star 2 stars 3 stars 4 stars 5 stars
comments

No Sensitivity Tab

   
------------------------------------------------------------------------------- 
NO SENSITIVITY - Jimmy Eat World 
------------------------------------------------------------------------------- 

tab by: Nathan Martinson 
call_of_ktulu852@hotmail.com icq: 34674986 

if this tab seems unnecessarily challening...its because it probably is. 
i tabbed this using all barre chords, however power chords work just fine 
(intro). this is a fun song to play...enjoy. 

intro: 

because of the speed involved...omit the high B and e if you must. 

e|---5---5/7---7---7---5-------5----5----| 
B|---5---5/7---7---7---5-------5----5----| 
G|---7---5/7---7---9---7-------5----5----| 
D|---7---7/9---9---9---7-------7----7----| 
A|---5---7/9---9---7---5-------7----7----| 
E|---5---5/7---7---7---5-------5----5----| 


verse: 

B/F# E/B D/A D/A A 
e|-2-----7-----5-----5------5---5---| 
B|-4-----9-----7-----7------5---5---| 
G|-4-----9-----7-----7------6---6---| 
D|-4-----9-----7-----7------7---7---| 
A|-2-----7-----5-----5------7---7---| 
E|-2-----7-----5-----5------5---5---| 

F# A B 
e|-2-----7-----5-----5------2---5/7-| 
B|-4-----9-----7-----7------2---5/7-| 
G|-4-----9-----7-----7------3---6/8-| 
D|-4-----9-----7-----7------4---7/9-| 
A|-2-----7-----5-----5------4---7/9-| 
E|-2-----7-----5-----5------2---5/7-| 


chorus: 

F# A E/B B 
e|-2-----5-----7-----7-| 
B|-2-----5-----9-----7-| 
G|-3-----6-----9-----8-| 
D|-4-----7-----9-----9-| 
A|-4-----7-----7-----9-| 
E|-2-----5-----7-----7-| 


solo: 
[ Tab from: http://www.guitartabs.cc/tabs/j/jimmy_eat_world/no_sensitivity_tab_ver_2.html ]
e|-----------------------------------------------------------------------------| 
B|-12-13-12-10-12-10-8-10-8-6-8-6-5-6-5-3-5-3-1-3-1-0-1-0---0------------------| 
G|--------------------------------------------------------2---2-0-2------------| 
D|-----------------------------------------------------------------------------| 
A|-----------------------------------------------------------------------------| 
E|-----------------------------------------------------------------------------| 

e|-----------------------------------------------------------------------------| 
B|-12-13-12-10-12-10-8-10-8-6-8-6-5-6-5-3---3---5---6---8---6---5---10---8-----| 
G|-----------------------------------------------------------------------------| 
D|-----------------------------------------------------------------------------| 
A|-----------------------------------------------------------------------------| 
E|-----------------------------------------------------------------------------| 

e|-----------------------------------------------------------------------------| 
B|12-13-12-10-12-10-8-10-8-6-8-6-5-6-5-3-12-13-12-10-12-10-8-10-8-6-8-6-5-6-5-3| 
G|-----------------------------------------------------------------------------| 
D|-----------------------------------------------------------------------------| 
A|-----------------------------------------------------------------------------| 
E|-----------------------------------------------------------------------------| 

e|-----------------------------------------------------------------------------| 
B|-12-13-12-10-12-10-8-10-8-6-8-6-5-6-5-3----3---5---6---8---6---5---8---10----| 
G|-----------------------------------------------------------------------------| 
D|-----------------------------------------------------------------------------| 
A|-----------------------------------------------------------------------------| 
E|-----------------------------------------------------------------------------|
Comments