Jimmy Eat World - Night Drive Chords & Tabs

 

Night Drive Chords & Tabs

Jimmy Eat World Chords & Tabs

Version: 2 Type: Tab 0 ratings
1 star 2 stars 3 stars 4 stars 5 stars
comments

Night Drive Tab

   
This is my favorite song off of Futures so I decided to tab the song since the other
tab's verse didn't sound right to me.

Intro
Same as Verse

Verse
 G#                F#	            C#               G#
|--------------------------------------------------------------------|
|--------------------------------------------------------------------|
|-----------------------------------6-6-6-6-6-6-6-6------------------|
|-6-6-6-6-6-6-6-6--4-4-4-4-4-4-4-4--6-6-6-6-6-6-6-6--6-6-6-6-6-6-6-6-|
|-6-6-6-6-6-6-6-6--4-4-4-4-4-4-4-4--4-4-4-4-4-4-4-4--6-6-6-6-6-6-6-6-|
|-4-4-4-4-4-4-4-4--2-2-2-2-2-2-2-2-------------------4-4-4-4-4-4-4-4-|

Chorus- Lightly Up and down pick this part
[ Tab from: http://www.guitartabs.cc/tabs/j/jimmy_eat_world/night_drive_tab_ver_2.html ]
|--------------------------------------------------------------------|
|--------------------------------------------------------------------|
|-5-5-5-5-5-5-5-5--3-3-3-3-3-3-3-3--5-5-5-5-5-5-5-5--1-1-1-1-1-1-1-1-|
|--------------------------------------------------------------------| 
|--------------------------------------------------------------------|
|--------------------------------------------------------------------|

The Bell Part sounds correct from the other Night Drive tab

|---9-10-9-10-9-7--5-7----9-10-9-10-9-7--7-5-------------------------|
|--------------------------------------------------------------------|
|--------------------------------------------------------------------|
|--------------------------------------------------------------------|
|--------------------------------------------------------------------|
|--------------------------------------------------------------------|

Part in between chorus and verse is played the same as the verse


Piano Chord Part for guitar
|-------------------|--|----------------------------------------------|
|-------------------|--|----------------------------------------------|
|----------6--------|--|----------------------------------------------|
|--6---4---6---6----|x3|--6---4---------------------------------------|
|--6---4---4---6----|--|--6---4---------------------------------------|
|--4---2-------4----|--|--4---2---------------------------------------|

Ends with the bell part alone.


Enjoy.
Comments