Jimmy Eat World - My Sundown Chords & Tabs

 

My Sundown Chords & Tabs

Jimmy Eat World Chords & Tabs

Version: 8 Type: Tab 0 ratings
1 star 2 stars 3 stars 4 stars 5 stars
comments

My Sundown Tab

There's a lot of versions of this song, and I actually submitted this before but messed 
 But I think this one works. -TB

Tune the low E to a low Eb.
[ Tab from: http://www.guitartabs.cc/tabs/j/jimmy_eat_world/my_sundown_tab_ver_8.html ]
E  -------------------------------------------------|
B  -------------------------------------------------|
G  -------------------------------------------------|
D  -8--8--8--8--8--8--8--8--8--8--8--8--8--8--8--8--|
A  -6--6--6--6--6--6--6--6--8--8--8--8--8--8--8--8--|
Eb -0--0--0--0--0--0--0--0--0--0--0--0--0--0--0--0--|

E  -------------------------------------------------|
B  -------------------------------------------------|
G  -------------------------------------------------|
D  -8--8--8--8--8--8--8--8--8--8--8--8--8--8--8--8--|
A  -6--6--6--6--6--6--6--6--6--6--6--6--6--6--6--6--|
Eb -5--5--5--5--5--5--5--5--5--5--5--5--5--5--5--5--|
Comments