Jimmy Eat World - Middle Solo Chords & Tabs

 

Middle Solo Chords & Tabs

Jimmy Eat World Chords & Tabs

Version: 1 Type: Tab 0 ratings
1 star 2 stars 3 stars 4 stars 5 stars
comments

Middle Solo Tab

Jimmy Eat World - The Middle Solo

Tabbed by Kevin Grant
Any Comments then email me at kev_lucid@hotmail.com

KEY

h			hammer on
p			pull off
s			slide
~~			tremolo picking


E----------------------------------------------------------------------
B---2h3p2--------------------------------------------------------------
G---------2------------------------------------------------------------
D-----------2-4h5p0-----4p0--------------------------------------------
A-------------------4-0-----5-4-5-4-5h7-5-4-5-5-4-5-4h5p4p0------------
D-----------------------------------------------------------0----------
[ Tab from: http://www.guitartabs.cc/tabs/j/jimmy_eat_world/middle_solo_tab.html ]
E----------------------------------------------------------------------
B---2h3p2--------------------------------------------------------------
G---------4-0----------------------------------------------------------
D-------------4h5p0-----4p0---------------------------444444-5---------
A-------------------4-0-----5-4-5-4-55555555-77777777------------------
D----------------------------------------------------------------------

E-----------------------------------------------------------------------
B-----------------------------------------------------------------------
G-----------------------------------------------------------------------
D---5-5s7-5-4-5-4-5-5s7-5-4-5-4-0-12-0-12s14-0-14-14s16-0-16-16s17-16-17
A-----------------------------------------------------------------------
D-----------------------------------------------------------------------

E-------------------------------0--0--0-0-0-0---------------------------
B-------------------------------0--0--0-0-0-0---------------------------
G--19~~----18~~----16~~----14~~-12-11-9-7-6-4---------------------------
D-----------------------------------------------------------------------
A-----------------------------------------------------------------------
D-----------------------------------------------------------------------


Comments