Jimmy Eat World - Kill Chords & Tabs

 

Kill Chords & Tabs

Jimmy Eat World Chords & Tabs

Version: 2 Type: Bass Tab

Kill Bass Tab

Ok, I know this is not 100% accurate but it's alot better than the other bass tab
for kill listed on here. You get the basic idea.

Intro: Don't play anything.

Verse:
G|---3------3------------|    
D|-----66------6666------|    
A|--------------------7--| x3 
E|-----------------------|   

G|-----------------------|    
D|--55555555---77777777--|    
A|-----------------------| x1 
E|-----------------------|   

G|---3------3------------|    
D|-----66------6666------|    
A|--------------------7--| x3 
E|-----------------------|  

G|-----------------------|    
D|--55555555---77777777--|    
A|-----------------------| x1 
E|-----------------------|  
[ Tab from: http://www.guitartabs.cc/tabs/j/jimmy_eat_world/kill_btab_ver_2.html ]
Chorus:
G|---------------------------------------|
D|---3333333-1111111-0000000-------------|
A|-----------------------------3333------| x4
E|---------------------------------------|

PAUSE!

Verse:

G|---3------3------------|    
D|-----66------6666------|    
A|--------------------7--| x3 
E|-----------------------|  

G|-----------------------|    
D|--55555555---77777777--|    
A|-----------------------| x1 
E|-----------------------|  

G|---3------3------------|    
D|-----66------6666------|    
A|--------------------7--| x3 
E|-----------------------|  

G|-----------------------|    
D|--55555555---77777777--|    
A|-----------------------| x1 
E|-----------------------|  

Chorus:
G|---------------------------------------|
D|---3333333-1111111-0000000-------------|
A|-----------------------------3333------| x4
E|---------------------------------------|

Finish:

G|---3------3------------|    
D|-----66------6666------|    
A|--------------------7--| x1 
E|-----------------------|