Jimmy Eat World - Hear You Me Chords & Tabs

 

Hear You Me Chords & Tabs

Jimmy Eat World Chords & Tabs

Version: 1 Type: Tab 0 ratings
1 star 2 stars 3 stars 4 stars 5 stars
comments

Hear You Me Tab

   
Jimmy Eat World - Hear You Me 
Album: Bleed American

This song is so beautiful, and you've got to have this album, 
it's brilliant 

Played with Capo 2

Intro:  D  Asus4 D/B   G9

--------2----0----0-----0---------
--------3----3----3-----3---------
--------2----2----0-----0---------
-------------2----0-----0--------
------------------2-----2-------
------------------x-----3-------

There's no one in town who i know
you gave us someplace to go 
i never said thank you for that 
thought i might get one more chance 

what would you think of me now? 
so lucky 
so strong 
so proud 
never said thank you for that 
now i'll never have a chance 
[ Tab from: http://www.guitartabs.cc/tabs/j/jimmy_eat_world/hear_you_me_tab.html ]
Chorus:
D          Asus4   G9
may angels lead you in 
hear you me my friends 
D            Asus4      Em7      G9
on sleepless roads the sleepless go 
D          Asus4   G9
may angels lead you in

Fill in (piano arranged for guitar)

e------------3--2------------------------5--3--2-------
b-3--3--5--7-------3--5------5--7--5--7----------------

e------------3--2--------------------------------------
b---3--5--7-------3--5--7-----3--5--7------------------

what would you think of me now? 
so lucky 
so strong 
so proud 
never said thank you for that 
now i'll never have a chance 

Chorus

Bm                G
May angels lead you in (repeated over and over)

Solo with chorus chors, sorry haven't figured it out yet,
but it sounds pretty easy

if you were with me tonight 
i'd sing to you just one more time 
a song for a heart so big god wouldn't let it live 

Chorus

Corrections and any other songs from their new album write to
Alexander-Inderst@web.de
Alex Inderst

Comments