Jimmy Eat World - Hear You Me Chords & Tabs

 

Hear You Me Chords & Tabs

Jimmy Eat World Chords & Tabs

Version: 1 Type: Bass Tab 0 ratings
1 star 2 stars 3 stars 4 stars 5 stars
comments

Hear You Me Bass Tab

Band - Jimmy Eat World
Song - Hear You Me
Album - Bleed American
Tabber - FlipSk8r13

Please rate this tab if you find it useful!

Verse
G|-------------
D|-------------
A|----2*-4*-0*-
E|-0*---------- 

The stars mean to hold the note for 12 counts... The song is in 3/4 time.
[ Tab from: http://www.guitartabs.cc/tabs/j/jimmy_eat_world/hear_you_me_btab.html ]
 Chorus
G|--------|--------|---------|--------|
D|--------|--------|---------|--------|
A|---2-0--|---2-0--|---2---0-|---2-0--|
E|-0------|-0------|-0---2---|-0------|

Solo Thing
G|--------------------
D|--------------------
A|-3------------------
E|---4---------------- 

Just repeat these notes over and over until you get back to the chorus.
Comments