Jimmy Eat World - Half Right Chords & Tabs

 

Half Right Chords & Tabs

Jimmy Eat World Chords & Tabs

Version: 1 Type: Bass Tab

Half Right Bass Tab

   
Artist: Jimmy Eat World
Song: Half Right (Heatmiser Cover)
Album: Stay On My Side Tonight EP
Tabbed by: Kmilongo (kmilo1989@gmail.com)
Tuning: Standard 4-string (GDAE)

NOTE: There are some slight variations in some parts of the song.
Listen to it and you'll know where.

Intro

G|---------------------|
D|---------------------|
A|3(x8)----------------|
E|------3-3-3-2-2-3-0-0|

Verse

G|---------------------|
D|---------------------|
A|---------------------|
E|3(x8)-3-3-3-2-2-3-0-0|
[ Tab from: http://www.guitartabs.cc/tabs/j/jimmy_eat_world/half_right_btab.html ]
G|---------------------|    |---------------------|    |---------------------|
D|---------------------|    |---------------------|    |---------------------|
A|---------------------|    |---------------------|    |---------------------|
E|0(x8)-0-0-0-2-2-3-3-3| or |0(x8)-3-3-3-2-2-3-0-0| or |0(x8)-0-0-0-3-3-2-3-3|

G|---------------------|    |---------------------|
D|---------------------|    |---------------------|
A|0(x8)----------------|    |0(x8)----------------|
E|------0-0-0-2-2-3-3-3| or |------0-0-0-3-3-2-3-3|

G|---------------------|
D|---------------------|
A|3(x8)----------------|
E|------3-3-3-2-2-3-0-0|

Interlude

G|------------------------------------------|
D|------------------------------------------|
A|--------------0(x16)-3(x8)----------------|
E|3(x16)-0(x16)--------------3-3-3-2-2-3-0-0|

Bridge

G|---------------------------|
D|---------------------------|
A|3(x8)-2(x8)-0(x8)----------|
E|------------------0(x16)-3~|

Order:

Intro     (0:21)
Verse     x3
Interlude
Verse     x2
Bridge
Intro     (3:04)
Verse     x3

Song ends with
E|3~|