Jimmy Eat World - Goodbye Sky Harbor Chords & Tabs

 

Goodbye Sky Harbor Chords & Tabs

Jimmy Eat World Chords & Tabs

Version: 1 Type: Bass Tab 0 ratings
1 star 2 stars 3 stars 4 stars 5 stars
comments

Goodbye Sky Harbor Bass Tab

"Goodbye Sky Harbor" by Jimmy Eat World
Transcribed by Jon Ritts (BigEarl192000@yahoo.com)

Tuned in Drop D

Verse:
G|-------------|-------------|-------------|-------------|--------------|
D|-------------|-------------|-------------|-------------|--------------|
A|-2-2-2-0-2-2-|-------------|-------------|-------------|--------------|
D|-------------|-0-0---0-0---|-0-0---0-0---|-0-0---0-0---|-0-0---0-0--0-|

G|-------------|-------------|-------------|-------------|--------------|
D|-------------|-------------|-------------|-------------|--------------|
A|-2-2-2-0-2-2-|-------------|-------------|-------------|--------------|
D|-------------|-5-5---5-5---|-5-5---5-5---|-5-5---5-5---|-5-5---5-5--5-|

G|-------------|-------------|-------------|-------------|--------------|
D|-------------|-------------|-------------|-------------|--------------|
A|-2-2-2-0-2-2-|-------------|-------------|-------------|--------------|
D|-------------|-0-0---0-0---|-0-0---0-0---|-0-0---0-0---|-0-0---0-0--0-|

G|-------------|-------------|-------------|-------------|--------------|
D|-------------|-------------|-------------|-------------|--------------|
A|-2-2-2-0-2-2-|-------------|-------------|-------------|--------------|
D|-------------|-0-0---0-0---|-0-0---0-0---|-0-0---0-0---|-0-0---0-0--0-|
[ Tab from: http://www.guitartabs.cc/tabs/j/jimmy_eat_world/goodbye_sky_harbor_btab.html ]
G|-------------|-------------|-------------|-------------|--------------|
D|-------------|-------------|-------------|-------------|--------------|
A|-2-2-2-0-2-2-|-------------|-------------|-------------|--------------|
D|-------------|-5-5---5-5---|-5-5---5-5---|-5-5---5-5---|-5-5---5-5--5-|

G|-----------------|
D|-----------------|
A|-2-2-2-0-2-2-----|
D|-------------4-2-|

Chorus: (0:38)
G|---------|---------|---------|---------|
D|---------|---------|---------|---------|
A|-2-2-2---|---------|---------|---------|
D|-------0-|-0-0-0-0-|-5-5-5-0-|-0-0-0-0-|

G|---------|---------|---------|---------|
D|---------|---------|---------|---------|
A|-2-2-2---|---------|-0-0-0-0-|-0-0-0-0-|
D|-------0-|-0-0-0-0-|---------|---------| (play 2x)

Rest during guitar fill
Play Verse (1:12)
Play Chorus 2x (1:49)

Bridge: (2:18)
G|---------|
D|---------|
A|-2-2-----|
D|---------| Then rest for a while...

Bridge Part 2: (2:53)
G|---------|---------|---------|---------|---------|---------|
D|---------|---------|---------|---------|---------|---------|
A|-2-2-2---|---------|-2-2-2---|---------|-2-2-2---|---------|
D|-------0-|-0-0-0-0-|-------0-|-0-0-0-0-|-------0-|-0-0-0-0-|

G|---------|---------|---------|---------|
D|---------|---------|---------|---------|
A|---------|---------|---------|---------| (play 33x, fading out during
D|-7-7-7-0-|-0-0-0-0-|-7-7-7-0-|-0-0-0-0-|   the 33rd time)

Bridge Part 3: (13:49)
G|---------|---------|---------|---------|---------|---------|
D|---------|---------|---------|---------|---------|---------|
A|-2-------|---------|-2-------|---------|-2-------|---------|
D|---------|---------|---------|---------|---------|---------|

G|---------|---------|---------|---------|
D|---------|---------|---------|---------|
A|---------|---------|---------|---------|
D|-7-------|---------|-7-------|---------| (play 6x)
Comments