Jimmy Eat World - Get It Faster Chords & Tabs

 

Get It Faster Chords & Tabs

Jimmy Eat World Chords & Tabs

Version: 8 Type: Tab 0 ratings
1 star 2 stars 3 stars 4 stars 5 stars
comments

Get It Faster Tab

   
Jimmy Eat World - Bleed American - Get it Faster

Drop D tuning: (D A D G B E)

Verse
|--------------------------------------------------------------------------|
|--------------------------------------------------------------------------| 
|--------------------------------------------------------------------------| 
|-5-5-5-5-5-5-5-5----8-8-8-8-8-8-8-8----3-3-3-3-3-3-3-3----1-1-1-1-1-1-1-1-| 
|-5-5-5-5-5-5-5-5----8-8-8-8-8-8-8-8----3-3-3-3-3-3-3-3----1-1-1-1-1-1-1-1-| 
|-5-5-5-5-5-5-5-5----8-8-8-8-8-8-8-8----3-3-3-3-3-3-3-3----1-1-1-1-1-1-1-1-| 

Chorus
|--------------------------------------------------------------------------|
|--------------------------------------------------------------------------| 
|--------------------------------------------------------------------------| 
|-5-5-5-5-5-5-5-5----8-8-8-8-8-8-8-8----3-3-3-3-3-3-3-3----1-1-1-1-1-1-1-1-| 
|-5-5-5-5-5-5-5-5----8-8-8-8-8-8-8-8----3-3-3-3-3-3-3-3----1-1-1-1-1-1-1-1-| 
|-5-5-5-5-5-5-5-5----8-8-8-8-8-8-8-8----3-3-3-3-3-3-3-3----1-1-1-1-1-1-1-1-| 
[ Tab from: http://www.guitartabs.cc/tabs/j/jimmy_eat_world/get_it_faster_tab_ver_8.html ]
|--------------------------------------------------------------------------|
|--------------------------------------------------------------------------| 
|--------------------------------------------------------------------------| 
|-5-5-5-5-5-5-5-5----8-8-8-8-8-8-8-8----3-3-3-3-3-3-3-3----1-1-1-1-8-8-3-3-| 
|-5-5-5-5-5-5-5-5----8-8-8-8-8-8-8-8----3-3-3-3-3-3-3-3----1-1-1-1-8-8-3-3-| 
|-5-5-5-5-5-5-5-5----8-8-8-8-8-8-8-8----3-3-3-3-3-3-3-3----1-1-1-1-8-8-3-3-| 

Sick Part
Guitar 1:
|---------------------------------------------------------------------------------| 
|---------------------------------------------------------------------------------| 
|------3--------3-3------3--------3-3------3----3 2----2------2----2-3-0-0--------| 
|-5-5---5-5-5------1-1---1-1-1------3-3---3-------3----0-0----0-------------------|
|-5-5---5-5-5------1-1---1-1-1------3-3---3-------3----0-0----0-------------------|
|-5-5---5-5-5------1-1---1-1-1------3-3---3-------3----0-0----0-------------------| 
        ^
	 muted	

Guitar 2:
|----------------------------------------------------------------------------------| 
|------3--------3-3------3--------4-4------3----3-1----1------1----1-3-------------| 
|------------------------------------------------------------------------------3-3-| 
|-5-5---5-5-5------1-1---1-1-1------3-3---3-------3----0-0----0--------------------|
|-5-5---5-5-5------1-1---1-1-1------3-3---3-------3----0-0----0--------------------|
|-5-5---5-5-5------1-1---1-1-1------3-3---3-------3----0-0----0--------------------| 
        ^
          muted
Comments