Jimmy Eat World - Get It Faster Chords & Tabs

 

Get It Faster Chords & Tabs

Jimmy Eat World Chords & Tabs

Version: 6 Type: Tab 0 ratings
1 star 2 stars 3 stars 4 stars 5 stars
comments

Get It Faster Tab

   
Artist: Jimmy Eat World
Track: Get It Faster
Album: Jimmy Eat World
Tabbed By Mark Brown

Drop D Tuning ( D A D G B e )

Intro
Guitar 1 (light palm mute)
e-----------------------------------------------------------------|
B-----------------------------------------------------------------|
G-----------------------------------------------------------------|
D-----------------------------------------------------------------|
A-----------------------------------------------------------------|
D-5-5-5-5-5-5-5-5-8-8-8-8-8-8-8-8-3-3-3-3-3-3-3-3-1-1-1-1-1-1-1-1-|
 p.m_____________________________________________________________|

Guitar 2 (plays the same later on heavy palm mute)
e-----------------------------------------------------------------|
B-----------------------------------------------------------------|
G-----------------------------------------------------------------|
D-----------------------------------------------------------------|
A-----------------------------------------------------------------|
D-5-5-5-5-5-5-5-5-8-8-8-8-8-8-8-8-3-3-3-3-3-3-3-3-1-1-1-1-1-1-1-1-|
 p.m_____________________________________________________________|

Chorus 
Both Guitars
e-----------------------------------------------------------------|
B-----------------------------------------------------------------|
G-----------------------------------------------------------------|
D-5-5-5-5-5-5-5-5-8-8-8-8-8-8-8-8-3-3-3-3-3-3-3-3-1-1-1-1-1-1-1-1-|
A-5-5-5-5-5-5-5-5-8-8-8-8-8-8-8-8-3-3-3-3-3-3-3-3-1-1-1-1-1-1-1-1-|
D-5-5-5-5-5-5-5-5-8-8-8-8-8-8-8-8-3-3-3-3-3-3-3-3-1-1-1-1-1-1-1-1-|

Verse 2
Both Guitars
e-----------------------------------------------------------------|
B-----------------------------------------------------------------|
G-----------------------------------------------------------------|
D-----------------------------------------------------------------|
A-----------------------------------------------------------------|
D-5-5-5-5-5-5-5-5-8-8-8-8-8-8-8-8-3-3-3-3-3-3-3-3-1-1-1-1-1-1-1-1-|
 p.m_____________________________________________________________|
[ Tab from: http://www.guitartabs.cc/tabs/j/jimmy_eat_world/get_it_faster_tab_ver_6.html ]
Chorus 
Both Guitars
e-----------------------------------------------------------------|
B-----------------------------------------------------------------|
G-----------------------------------------------------------------|
D-5-5-5-5-5-5-5-5-8-8-8-8-8-8-8-8-3-3-3-3-3-3-3-3-1-1-1-1-1-1-1-1-|
A-5-5-5-5-5-5-5-5-8-8-8-8-8-8-8-8-3-3-3-3-3-3-3-3-1-1-1-1-1-1-1-1-|
D-5-5-5-5-5-5-5-5-8-8-8-8-8-8-8-8-3-3-3-3-3-3-3-3-1-1-1-1-1-1-1-1-|

Solo
Guitar 1
e--------------------------------------------------|
B--------------------------------------------------|
G--------------------------------------------------|
D-5-5--5-5-5-----1-1--1-1-1-----3-3--3--3---0-0--0-|
A-5-5--5-5-5-----1-1--1-1-1-----3-3--3--3---0-0--0-|
D-5-5--5-5-5-----1-1--1-1-1-----3-3--3--3---0-0--0-|
                                                p.m
Guitar 2
e--0----0--0------0----0--0---0---0--0--0--0--0--0-0-0|
B-10---10-10-----10---10-11--11--11-10-11-10-10-11-8-8|
G-----------------------------------------------------|
D-----------------------------------------------------|
A-----------------------------------------------------|
D-----------------------------------------------------|

Both Guitars
e-----------------------------------------------------------------|
B-----------------------------------------------------------------|
G-----------------------------------------------------------------|
D-----------------------------------------------------------------|
A-----------------------------------------------------------------|
D-5-5-5-5-5-5-5-5-8-8-8-8-8-8-8-8-3-3-3-3-3-3-3-3-1-1-1-1-1-1-1-1-|
 p.m_____________________________________________________________|

Chorus 
Both Guitars
e-----------------------------------------------------------------|
B-----------------------------------------------------------------|
G-----------------------------------------------------------------|
D-5-5-5-5-5-5-5-5-8-8-8-8-8-8-8-8-3-3-3-3-3-3-3-3-1-1-1-1-1-1-1-1-|
A-5-5-5-5-5-5-5-5-8-8-8-8-8-8-8-8-3-3-3-3-3-3-3-3-1-1-1-1-1-1-1-1-|
D-5-5-5-5-5-5-5-5-8-8-8-8-8-8-8-8-3-3-3-3-3-3-3-3-1-1-1-1-1-1-1-1-|

Outro
Both Guitars
e--------|
B--------|
G--------|
D-5/-----|
A-5/-----|
D-5/-----|
Comments