Jimmy Eat World - Get It Faster Chords & Tabs

 

Get It Faster Chords & Tabs

Jimmy Eat World Chords & Tabs

Version: 11 Type: Tab 0 ratings
1 star 2 stars 3 stars 4 stars 5 stars
comments

Get It Faster Tab

   
----------------------------------------------------------------------------
			     get it faster-jimmy eat world
----------------------------------------------------------------------------
Tabbed by:matt
Email:doesnt work

Tuning:drop D (dadgbe)

intro
e|--------------------------------------------------------------------------|
B|--------------------------------------------------------------------------|
G|--------------------------------------------------------------------------|
D|--------------------------------------------------------------------------|
A|--------------------------------------------------------------------------|
D|--55555555/88888888\33333333\11111111/-----6x-----------------------------|
    ....................................  <~~ pm
chorus1
e|--------------------------------------------------------------------------|
B|--------------------------------------------------------------------------|
G|--------------------------------------------------------------------------|
D|----55555555/88888888\33333333\11111111/------2x--------------------------|
A|----55555555/88888888\33333333\11111111/----------------------------------|
D|----55555555/88888888\33333333\11111111/----------------------------------|
verse 1
e|--------------------------------------------------------------------------|
B|--------------------------------------------------------------------------|
G|--------------------------------------------------------------------------|
D|--------------------------------------------------------------------------|
A|--------------------------------------------------------------------------|
D|--55555555/88888888\33333333\11111111/-----2x-----------------------------|
    ....................................  <~~ pm
chorus2
e|--------------------------------------------------------------------------|
B|--------------------------------------------------------------------------|
G|--------------------------------------------------------------------------|
D|--55555555/88888888\33333333\11111111/55555555/88888888\33333333\
A|--55555555/88888888\33333333\11111111/55555555/88888888\33333333\
D|--55555555/88888888\33333333\11111111/55555555/88888888\33333333\

e|--------------------------------------------------------------------------|
B|--------------------------------------------------------------------------|
G|--------------77777777/1010101010101010\55555555\33333333/----------------|
D|---\111111/88\55555555/8-8-8-8-8-8-8-8-\33333333\11111111/----------------|
A|---\111111/88\55555555/8-8-8-8-8-8-8-8-\33333333\11111111/----------------|
D|---\111111/88\55555555/8-8-8-8-8-8-8-8-\33333333\11111111/----------------|
[ Tab from: http://www.guitartabs.cc/tabs/j/jimmy_eat_world/get_it_faster_tab_ver_11.html ]
e|--------------------------------------------------------------------------|
B|--------------------------------------------------------------------------|
G|-77777777/1010101010101010\55555555\333333/1010\-slide into solo part-----|
D|-55555555/8-8-8-8-8-8-8-8-\33333333\111111/8-8-\--------------------------|
A|-55555555/8-8-8-8-8-8-8-8-\33333333\111111/8-8-\--------------------------|
D|-55555555/8-8-8-8-8-8-8-8-\33333333\111111/8-8-\--------------------------|


solo part this takes two guitars but i found a way to do it with 1 so yea...
e|--------------------------------------------------------------------------|
B|----3-----33---3-----44------3--31-1-----1------13------------------------|
G|----3-----33---3-----33------3--33-3-----3------2300----------------------|
D|-55---555----11--111------33---3--3---00-----0----------4x----------------|
A|-55---555----11--111------33---3--3---00-----0----------------------------|
D|-55---555----11--111------33---3--3---00-----0----------------------------|
                                               . <~~palm mute

he just pic scrapes a lot between the solo and the 2 verse

verse 2 (if you listen closely you can hear sum high pitch notes)
e|------------------------------------3-3-3-3-3-3-3-3-1-1-1-1-1-1-1-1--------|
B|---------------------------------------------------------------------------|
G|---7-7-7-7-7-7-7-7-1010101010101010----------------------------------------|
D|--------------------------------------------------------------------2x-----|
A|---------------------------------------------------------------------------|
D|--5-5-5-5-5-5-5-5-/8-8-8-8-8-8-8-8\3-3-3-3-3-3-3-3\1-1-1-1-1-1-1-1---------|

the notes on the G and e string are played after the notes on the D string (5/7/5/7) 
easier to finger pic it)
chorus 3
e|--------------------------------------------------------------------------|
B|--------------------------------------------------------------------------|
G|--------------------------------------------------------------------------|
D|55555555/88888888\33333333\11111111/55555555/88888888\33333333\111111/88\
A|55555555/88888888\33333333\11111111/55555555/88888888\33333333\111111/88\
D|55555555/88888888\33333333\11111111/55555555/88888888\33333333\111111/88\

e|---------------------------------------------------------------------------|
B|---------------------------------------------------------------------------|
G|77777777/1010101010101010\55555555\33333333/77777777/1010101010101010\-----|
D|55555555/8-8-8-8-8-8-8-8-\33333333\11111111/55555555/8-8-8-8-8-8-8-8-\-----|
A|55555555/8-8-8-8-8-8-8-8-\33333333\11111111/55555555/8-8-8-8-8-8-8-8-\-----|
D|55555555/8-8-8-8-8-8-8-8-\33333333\11111111/55555555/8-8-8-8-8-8-8-8-\-----|

                                             end on this**
e|------------------------------------------|-------------------------------|
B|------------------------------------------|-------------------------------|
G|55555555\333333/1010\--slide into finish--|----7-7~-----------------------|
D|33333333\111111/8-8-\---------------------|----5-5~-----------------------|
A|33333333\111111/8-8-\---------------------|----5-5~-----------------------|
D|33333333\111111/8-8-\---------------------|----5-5~-----------------------|


| /  slide up
| \  slide down
| h  hammer-on
| p  pull-off
| ~  vibrato
| +  harmonic
| x  Mute note
============================================================================
Comments