Jimmy Eat World - Game Of Pricks Chords & Tabs

 

Game Of Pricks Chords & Tabs

Jimmy Eat World Chords & Tabs

Version: 1 Type: Bass Tab 0 ratings
1 star 2 stars 3 stars 4 stars 5 stars
comments

Game Of Pricks Bass Tab

   
Artist: Jimmy Eat World
Song: Game of Pricks
Tabbed by: Kmilongo (kmilo1989@gmail.com)
Tuning: Standard 4-string (GDAE)

Riff A

G|-----------------------------------------------|
D|-----------------------------------------------|
A|0-0-0-0-0-0-0-0-4-4-4-4---------5-5-5-5-5-5-5-5|
E|------------------------2-2-2-2----------------|

Riff B
[ Tab from: http://www.guitartabs.cc/tabs/j/jimmy_eat_world/game_of_pricks_btab.html ]
G|---------------------------------------------------------------|
D|---------------------------------------------------------------|
A|2-2-2-2-2-2-2-2-2-2-2-2-2-2-2-2-5-5-5-5-5-5-5-5-5-5-5-5-5-5-5-5|
E|---------------------------------------------------------------|

Riff C

G|-----------------------------------------------|
D|-----------------------------------------------|
A|----------------2-2-2-2-4-4-4-4-5-5-5-5-5-5-5-5|
E|5-5-5-5-4-4-4-4--------------------------------|


Order
Riff A x4 (0:15)
Riff B x1
Riff C x1
Riff A x2
Riff B x1
Riff C x1
Riff A x2
Riff B x1
Riff C x3

Song ends with

G|--|
D|--|
A|0~|
E|--|
Comments