Jimmy Eat World - For Me This Is Heaven Perfect Chords & Tabs

 

For Me This Is Heaven Perfect Chords & Tabs

Jimmy Eat World Chords & Tabs

Version: 1 Type: Tab 0 ratings
1 star 2 stars 3 stars 4 stars 5 stars
comments

For Me This Is Heaven Perfect Tab

   
-------------------------------------------------------------------------------
       For Me This Is Heaven - Jimmy Eat World
-------------------------------------------------------------------------------
Tabbed by:Mike
Email: DuBs123@aol.com
The other tabs suck so here is the right way to play this amazing song.
And this is my first tab so e-mail me what you think.
Tuning:OPEN E
Guitar 1 has capo on second fret (tab relative to capo)

Guitar 2 4X
e|-----------------------------------------------------------------------------|
B|-----------------------------------------------------------------------------|
G#|----------------------------------------------------------------------------|
E|-----------------------------------------------------------------------------|
B|-------2----2----------2-----2----------2---2-----------2-----2--------------|
E|--4-4---4-----4-6-6----6-----6-2-2----2---2--2--2----2-----2-----------------|
Guitar 1 (Comes 2nd time)
e|------------14-----------14------------14-----------------------------------|
B|--------17-----------17-----------17----------------------------------------|
G#|--15----------15------------15---------------------------------------------|
E|----------------------------------------------------------------------------|
B|----------------------------------------------------------------------------|
E|----------------------------------------------------------------------------|
Chorus
Guitar 2 2X
e|-----------------------------------------------------------------------------|
B|----------2------2-------4-------4--------6--------6------6--------6---------|
G#|----0------0-------0-------0--------0--------0------0--------0--------------|
E|--2-------2------4-------4--------6-------6------6--------6------------------|
B|-----------------------------------------------------------------------------|
E|-----------------------------------------------------------------------------|
Guitar 1 2X
e|---------------------------------0-------------------------------------------|
B|----------0------0-------0--------4-------0-------0-------0-------0----------|
G#|-----2------2-------3----3-----------2-------2-------2-------2--------------|
E|---2------2-------4-----------------0-------0-------0-------0----------------|
B|-----------------------------------------------------------------------------|
E|-----------------------------------------------------------------------------|
Verse 1
Guitar 2 4X
e|-----------------------------------------------------------------------------|
B|-----------------------------------------------------------------------------|
G#|----------------------------------------------------------------------------|
E|-----------------------------------------------------------------------------|
B|-------2----2----------2-----2----------2---2-----------2-----2--------------|
E|--4-4---4-----4-6-6----6-----6-2-2----2---2--2--2----2-----2-----------------|
Guitar 1 2X (Light in background) at
"I'm careful but but not sure how it goes..."
e|-----------------------------------------------------------------------------|
B|----7----5--4--4-5--7-0------------------------------------------------------|
G#|----------------------------------------------------------------------------|
E|-----------------------------------------------------------------------------|
B|-----------------------------------------------------------------------------|
E|-----------------------------------------------------------------------------|

Chorus
Guitar 2 4X
e|-------------------------------------------------------------------------------|
B|----------2------2-------4-------4--------6--------6------6--------6-----------|
G#|----0------0-------0-------0--------0--------0------0--------0----------------|
E|--2-------2------4-------4--------6-------6------6--------6--------------------|
B|-------------------------------------------------------------------------------|
E|-------------------------------------------------------------------------------|
Guitar 1 4X
e|---------------------------------0-------------------------------------------|
B|----------0------0-------0--------4-------0-------0-------0-------0----------|
G#|-----2------2-------3----3-----------2-------2-------2-------2--------------|
E|---2------2-------4-----------------0-------0-------0-------0----------------|
B|-----------------------------------------------------------------------------|
E|-----------------------------------------------------------------------------|

Second Verse
Guitar 2 6X
e|-----------------------------------------------------------------------------|
B|-----------------------------------------------------------------------------|
G#|----------------------------------------------------------------------------|
E|-------9----9------------9------9-------------9----9-----------9----9--------|
B|9--9----9----9--6--6------6-----6--7--7-----7----7-7--7----7---7-------------|
E|-----------------------------------------------------------------------------|
Guitar 1 2X in at
"This is what she says gets her through...."
e|-----------------------------------------------------------------------------|
B|------7--5--4-4-5---7--0-----------------------------------------------------|
G#|----------------------------------------------------------------------------|
E|-----------------------------------------------------------------------------|
B|-----------------------------------------------------------------------------|
E|-----------------------------------------------------------------------------|
[ Tab from: http://www.guitartabs.cc/tabs/j/jimmy_eat_world/for_me_this_is_heaven_perfect_tab.html ]
Chorus
Guitar 2 4 X
e|-------------------------------------------------------------------------------|
B|----------2------2-------4-------4--------6--------6------6--------6-----------|
G#|----0------0-------0-------0--------0--------0------0--------0----------------|
E|--2-------2------4-------4--------6-------6------6--------6--------------------|
B|-------------------------------------------------------------------------------|
E|-------------------------------------------------------------------------------|
Guitar 1 4X
e|---------------------------------0-------------------------------------------|
B|----------0------0-------0--------4-------0-------0-------0-------0----------|
G#|-----2------2-------3----3-----------2-------2-------2-------2--------------|
E|---2------2-------4-----------------0-------0-------0-------0----------------|
B|-----------------------------------------------------------------------------|
E|-----------------------------------------------------------------------------|

Bridge Part 1
Guitar 2 Chords (Listen for changes)
e|-----------------------------------------------------------------------------|
B|-----------------------------------------------------------------------------|
G#|---12--------------5--------------9-----------------------------------------|
E|------9-----12X----2----12X-----6----12X-------------------------------------|
B|------9--------------2---------------6---------------------------------------|
E|------9--------------2---------------6---------------------------------------|

Guitar 2 (Solo)
e|-----------------------------------------------------------------------------|
B|------4--5--4--2/4--0--------------------------------------------------------|
G#|----------------------------------------------------------------------------|
E|-----------------------------------------------------------------------------|
B|---------------------------4-5--4--2/4--0------------------------------------|
E|-----------------------------------------------------------------------------|

Guitar 2 Last Time Bridge Solo
e|-----------------------------------------------------------------------------|
B|-----4--5--4-5--4-5/7--------------------------------------------------------|
G#|----------------------------------------------------------------------------|
E|-----------------------------------------------------------------------------|
B|-----------------------------------------------------------------------------|
E|-----------------------------------------------------------------------------|

Bridge Part 2
Guitar 2
Fast strumming and hammer on
or pull off to each new chord
e|-----9--------------------------------------------------9-------------------|
B|-----9-------------------------------------------------11-------------------|
G#|---9-------------------------------------------------10--------------------|
E|-----9-------------------------------------------------9--------------------|
B|----------------------------------------------------------------------------|
E|----------------------------------------------------------------------------|

Guitar 2 (con't)
e|------9--------------------------------------------9-------------------------|
B|-----11-------------------------------------------9--------------------------|
G#|----9--------------------------------------------9--------------------------|
E|------9--------------------------------------------9-------------------------|
B|-----------------------------------------------------------------------------|
E|-----------------------------------------------------------------------------|

Guitar 1
Same strumming as guitar 2
and same times of chord change
e|-----------------------------------------------------------------------------|
B|-------7--------------------------------------------9------------------------|
G#|-----x--------------------------------------------x-------------------------|
E|-------x--------------------------------------------x------------------------|
B|-------7--------------------------------------------9------------------------|
E|-----------------------------------------------------------------------------|

e|-----------------------------------------------------------------------------|
B|-------9--------------------------------------------7------------------------|
G#|-----x--------------------------------------------x-------------------------|
E|-------x--------------------------------------------x------------------------|
B|-------9--------------------------------------------9------------------------|
E|-----------------------------------------------------------------------------|

Chorus
Guitar 2 4X
e|-------------------------------------------------------------------------------|
B|----------2------2-------4-------4--------6--------6------6--------6-----------|
G#|----0------0-------0-------0--------0--------0------0--------0----------------|
E|--2-------2------4-------4--------6-------6------6--------6--------------------|
B|-------------------------------------------------------------------------------|
E|-------------------------------------------------------------------------------|
Guitar 1 4X
e|---------------------------------0-------------------------------------------|
B|----------0------0-------0--------4-------0-------0-------0-------0----------|
G#|-----2------2-------3----3-----------2-------2-------2-------2--------------|
E|---2------2-------4-----------------0-------0-------0-------0----------------|
B|-----------------------------------------------------------------------------|
E|-----------------------------------------------------------------------------|

Outro
Guitar 1
e|---------------------------------0-------------------------------------------|
B|----------0------0-------0--------4-------0-------0-------0-------0----------|
G#|-----2------2-------3----3-----------2-------2-------2-------2--------------|
E|---2------2-------4-----------------0-------0-------0-------0----------------|
B|-----------------------------------------------------------------------------|
E|-----------------------------------------------------------------------------|

| /  slide up
| \  slide down
| h  hammer-on
| p  pull-off
| ~  vibrato
| +  harmonic
| x  Mute note
===============================================================================
Comments