Jimmy Eat World - Crush Chords & Tabs

 

Crush Chords & Tabs

Jimmy Eat World Chords & Tabs

Version: 1 Type: Bass Tab 0 ratings
1 star 2 stars 3 stars 4 stars 5 stars
comments

Crush Bass Tab

"Crush" by Jimmy Eat World
Transcribed by Jon Ritts (BigEarl192000@yahoo.com)

Tuned in Drop D
[ 3 ] below a line of tab shows that the notes make up a triplet

Intro: (0:01)
G|----------|---------------|---------------|---------------|---------------|
D|----------|---------------|---------------|---------------|---------------|
A|----------|---------------|---------------|---------------|---------------|
D|-0--------|-5--5--5-5-5-5-|-5--5--5-5-5-5-|-5--5--5-5-5-5-|-5--5--5-5-5-5-|

Verse: (0:12)
G|-----------------|-----------------|-----------------|-----------------|
D|-----------------|-----------------|-----------------|-----------------|
A|-----------------|-----------------|-----------------|-----------------|
D|-0-0-0-0-0-0-0-0-|-0-0-0-0-0-0-0-0-|-0-0-0-0-0-0-0-0-|-0-0-0-0-0-0-0-0-|

G|---------------|---------------|---------------|---------------|
D|---------------|---------------|---------------|---------------|
A|---------------|---------------|---------------|---------------|
D|-5--5--5-5-5-5-|-5--5--5-5-5-5-|-5--5--5-5-5-5-|-5--5--5-5-5-5-|

Chorus: (0:23)
G|---------------|---------------|---------------|---------------|
D|---------------|---------------|---------------|---------------|
A|---------------|---------------|---------------|---------------|
D|-4--4-4-4--4-4-|-5--5-5-5--5-5-|-0--0-0-0--0-0-|-0--0-0-0--0-0-| (play 2x)

G|----------------|----------------|----------------|----------------|
D|----------------|----------------|----------------|----------------|
A|----------------|----------------|----------------|----------------|
D|-4--4-4-4-4-4-4-|-5--5-5-5-5-5-5-|-0--0-0-0-0-0-0-|-0--0-0-0-0-0-0-|

G|----------------|----------------|----------------|----------------|
D|----------------|----------------|----------------|----------------|
A|----------------|----------------|----------------|----------------|
D|-4--4-4-4-4-4-4-|-5--5-5-5-5-5-5-|-0--0-0-0-0-0-0-|-7--7-7-7-7-7-7-|

G|----------------|-----------------|----------------|-----------------|
D|----------------|-----------------|----------------|-----------------|
A|----------------|-----------------|----------------|-----------------|
D|-5--5-5-5-5-5-5-|-5-5-5-5-5-5-5-5-|-5--5-5-5-5-5-5-|-5-5-5-5-5-5-5-5-|
[ Tab from: http://www.guitartabs.cc/tabs/j/jimmy_eat_world/crush_btab.html ]
2nd Verse: (0:49)
G|-----------------|-----------------|-----------------|-----------------|
D|-----------------|-----------------|-----------------|-----------------|
A|-----------------|-----------------|-----------------|-----------------|
D|-0-0-0-0-0-0-0-0-|-0-0-0-0-0-0-0-0-|-0-0-0-0-0-0-0-0-|-0-0-0-0-0-0-0-0-|

G|---------------|---------------|---------------|---------------|
D|---------------|---------------|---------------|---------------|
A|---------------|---------------|---------------|---------------|
D|-5--5--5-5-5-5-|-5--5--5-5-5-5-|-5--5--5-5-5-5-|-5--5--5-5-5-5-|

G|-----------------|-----------------|-------------------|-------------------|
D|-----------------|-----------------|-------------------|-------------------|
A|-----------------|-----------------|-------------------|-------------------|
D|-0-0-0-0-0-0-0-0-|-0-0-0-0-0-0-0-0-|-0-0-0-0-0-0-0-0-0-|-0-0-0-0-0-0-0-0-0-|
                                             [ 3 ]     [   3 ]

G|---------------|---------------|---------------|---------------|
D|---------------|---------------|---------------|---------------|
A|---------------|---------------|---------------|---------------|
D|-5--5--5-5-5-5-|-5--5--5-5-5-5-|-5--5--5-5-5-5-|-5--5--5-5-5-5-|

Play Chorus again, leaving off last 2 measures (1:10)

Bridge: (1:34)
G|-----------------|-----------------|-----------------|-----------------|
D|-----------------|-----------------|-----------------|-----------------|
A|-----------------|-----------------|-----------------|-----------------|
D|-4-4-4-4-4-4-4-4-|-0-0-0-0-0-0-0-0-|-9-9-9-9-9-9-9-9-|-5-5-5-5-5-5-5-5-|
 (play 4x)

2nd Part of Bridge: (1:55)
G|---------------|---------------|---------------|---------------|
D|---------------|---------------|---------------|---------------|
A|---------------|---------------|---------------|---------------|
D|-0--0--0-0-0-0-|-0--0--0-0-0-0-|-7--7--7-7-7-7-|-7--7--7-7-7-7-|

G|---------------|---------------|---------------|---------------|
D|---------------|---------------|---------------|---------------|
A|---------------|---------------|---------------|---------------|
D|-9--9--9-9-9-9-|-9--9--9-9-9-9-|-5--5--5-5-5-5-|-5--5--5-5-5-5-| (play 2x)

Outro: (2:16)
G|----------|----------|----------|
D|----------|----------|----------|
A|----------|----------|----------|
D|-4--------|-5--------|-0--------| (play 2x)

2nd Part of Outro: (2:27)
G|----------------|----------------|----------------|----------------|
D|----------------|----------------|----------------|----------------|
A|----------------|----------------|----------------|----------------|
D|-4--4-4-4-4-4-4-|-5--5-5-5-5-5-5-|-0--0-0-0-0-0-0-|-0--0-0-0-0-0-0-| (play 4x)

Play 1st Outro 2x again (2:48)
Comments