Jimmy Eat World - Clarity Chords & Tabs

 

Clarity Chords & Tabs

Jimmy Eat World Chords & Tabs

Version: 1 Type: Tab 0 ratings
1 star 2 stars 3 stars 4 stars 5 stars
comments

Clarity Tab

   
#----------------------------------PLEASE NOTE---------------------------------#
#This file is the author's own work and represents their interpretation of the #
#song. You may only use this file for private study, scholarship, or research. #
#------------------------------------------------------------------------------#

Song:Clarity
Artist:Jimmy Eat World
Album:Clarity
Author:Frank Sortelli
Tuning:Standard

Intro: 
Guitar One
  C#m             Em              A               Em      E 
|---------------------------------------------------------0-0-x-x- 
|---------------------------------------------------------x-x-0-0- 
|-6-6-6-6-6-6-6-6-----------------------------------------1-1-1-1- 
|-6-6-6-6-6-6-6-6-2-2-2-2-2-2-2-2-7-7-7-7-7-7-7-7-2-2-2-2-2-2-2-2- 
|-4-4-4-4-4-4-4-4-2-2-2-2-2-2-2-2-7-7-7-7-7-7-7-7-2-2-2-2-2-2-2-2- 
|-----------------0-0-0-0-0-0-0-0-5-5-5-5-5-5-5-5-0-0-0-0-0-0-0-0- 

Guitar Two 
|---------------------------------------------------------- 
|------------------------------9----9---------------------- 
|-8/9\8/9/11\9\8/9--8/9\8/9-11---11---8/9\8/9-9-8/9\8/9-9-- 
|-x-x-x-x-x--x-x-x--x-x-x-x-----------x-x-x-x-x-x-x-x-x-x-- 
|-6/7\6/7/9-\7\6/7--6/7\6/7-----------6/7\6/7-7-6/7\6/7-7-- 
|---------------------------------------------------------- 
[ Tab from: http://www.guitartabs.cc/tabs/j/jimmy_eat_world/clarity_tab.html ]
Verse: 
Bass stuff
Guitar two plays intro stuff. Then....... 
  A                     E 
|-0--0--0-0-0-0-0-0-0---0--0--0-0-0-0-0-0- 
|-10-10-9-9-7-7-5-5-10--10-10-9-9-7-7-5-5- 
|----------------------------------------- 
|----------------------------------------- 
|----------------------------------------- 
|----------------------------------------- 




Chorus: 
|----0----0--0----0----0--0--------------------------------- 
|----4----5--7----4----4b-4--------------------------------- 
|----------------------------------------------------------- 
|-7-7--7-7--7--2-2--2-2--2--4-4-4-4-4-4-4-4-7-7-7-7-7-7-7-7- 
|-7-7--7-7--7--2-2--2-2--2--4-4-4-4-4-4-4-4-7-7-7-7-7-7-7-7- 
|-5-5--5-5--5--0-0--0-0--0--2-2-2-2-2-2-2-2-5-5-5-5-5-5-5-5- 

last time: 
  A               E               F#m             A 
|-0-0-0-0-0-0-0-0-0-0-0-0-0-0-0-0--------------------------------- 
|-7-7-7-7-7-7-7-7-7-7-7-7-7-7-7-7--------------------------------- 
|-0-0-0-0-0-0-0-0-0-0-0-0-0-0-0-0-x-x-x-x-x-x-x-x-x-x-x-x-x-x-x-x-
|---------------------------------4-4-4-4-4-4-4-4-7-7-7-7-7-7-7-7- 
|---------------------------------4-4-4-4-4-4-4-4-7-7-7-7-7-7-7-7- 
|---------------------------------2-2-2-2-2-2-2-2-5-5-5-5-5-5-5-5- 
  
Bridge: 
  C#m             B               A               E 
|-------------------------------------------------0-0-0-0-0-0-0-0- 
|-5-5-5-5-5-5-5-5---------------------------------0-0-0-0-0-0-0-0- 
|-6-6-6-6-6-6-6-6-4-4-4-4-4-4-4-4-----------------1-1-1-1-1-1-1-1- 
|-6-6-6-6-6-6-6-6-4-4-4-4-4-4-4-4-7-7-7-7-7-7-7-7-2-2-2-2-2-2-2-2- 
|-4-4-4-4-4-4-4-4-2-2-2-2-2-2-2-2-7-7-7-7-7-7-7-7-2-2-2-2-2-2-2-2- 
|---------------------------------5-5-5-5-5-5-5-5-0-0-0-0-0-0-0-0- 
  

Layout........

Intro (2x) 

Verse 

Chorus 

Verse 

Chorus 

Bridge 

Chorus 

  
  
  
  Email me with comment or questions.
Frank sortelli    Firebreather6@cs.com
11:16 PM 9/21/01     copyright 2001
Comments