Jimmy Eat World - Claire Chords & Tabs

 

Claire Chords & Tabs

Jimmy Eat World Chords & Tabs

Version: 1 Type: Bass Tab

Claire Bass Tab

   
Artist: Jimmy Eat World
Song: Claire
Album: Static Prevails
Tabbed by: Kmilongo (kmilo1989@gmail.com)
Tuning: Standard 4-string (GDAE)

Note: I know that most of J.E.W songs are usually played in Drop D Tuning.
It's very easy to figure out how to play this song in Drop D when you have the Standard Tuning Tab.
You figure that out. Check out my Rockstar bass tab to get the idea.

Intro

G|---------------------------|
D|3(x8)----------------------|
A|------1(x6)-3-3------------|
E|----------------4(x14)-1111|

G|---------------------------|
D|3(x8)----------------------|
A|------1(x8)-3-3-4(x14)-3333|
E|---------------------------|

Verse

G|-----------------------|
D|-----------------------|
A|------6(x6)-3(x6)-4(x6)|
E|4(x6)------------------| x4
[ Tab from: http://www.guitartabs.cc/tabs/j/jimmy_eat_world/claire_btab.html ]
G|------------------------|
D|------------------------|
A|------4(x3)-------------|
E|1(x6)-------4(x3)-3(x12)| x3

G|--------------|
D|--------------|
A|------------4~|
E|1(x9)-4(x3)---|

Bridge

G|---------------------------|
D|3(x8)----------------------|
A|------1(x6)-3-3------------|
E|----------------4(x14)-1111|

G|---------------------------|
D|3(x8)----------------------|
A|------1(x8)-3-3-4(x14)-3333|
E|---------------------------|

G|---------------------------|
D|3(x8)----------------------|
A|------1(x6)-3-3------------|
E|----------------4(x14)-1111|

G|---------------------------|
D|3(x8)----------------------|
A|------1(x8)-3-3-4(x14)-3333|
E|---------------------------|

Outro

G|-----------------------|
D|-----------------------|
A|------6(x6)-3(x6)-4(x6)|
E|4(x6)------------------| x4

Order:
Intro
Verse  x2
Bridge
Outro

Song ends with
E|4~|