Jimmy Eat World - Bleed American Chords & Tabs

 

Bleed American Chords & Tabs

Jimmy Eat World Chords & Tabs

Version: 6 Type: Tab 0 ratings
1 star 2 stars 3 stars 4 stars 5 stars
comments

Bleed American Tab

   
tabbed by: Perri  -static_prevails28@hotmail.com-

Tuning: Drop D
        
        D, A, D, G, B, E

I advice you listen to the song first to understand what the strumming pattern is.
===============================================================================

INTRO 

      Guitars 1, 2
 E|-------0-------0-------------0-------0-------------0-------0-------
 B|-----0-2-----0-2-----0-----0-2-----0-2-----0-----0-2-----0-2-----0-
 G|-----4-------4-------4-----4-------4-------4-----4-------4-------4-
 D|-4-4-----4-4-----4-4---0-0-----0-0-----0-0---4-4-----4-4-----4-4---
 A|-4-4-----4-4-----4-4---0-0-----0-0-----0-0---4-4-----4-4-----4-4---
 D|-4-4-----4-4-----4-4---0-0-----0-0-----0-0---4-4-----4-4-----4-4---

 -----------------------------------------|
 -----------------------------------------|
 -----------------------------------------|
 -7-7-7-7-7-7-7-7-0-0-0-0-9-9-9-9-9-9-9-9-|
 -7-7-7-7-7-7-7-7-0-0-0-0-9-9-9-9-9-9-9-9-|
 -7-7-7-7-7-7-7-7-0-0-0-0-9-9-9-9-9-9-9-9-|

VERSE 1

      Guitars 1, 2
 -----------------------------------------------------------------|
 -----------------------------------------------------------------|
 -----------------------------------------------------------------|
 -----------------------------------------------------------------|
 -------------------------------------------------2-2-2-2-2-2-2-2-|
 -4-4-4-4-4-4-4-4-4-4-4-4-4-4-4-4-0-0-0-0-0-0-0-0-----------------|
   p.m.___________________________________________________________

 -----------------------------------------------------------------|
 -----------------------------------------------------------------|
 -----------------------------------------------------------4-4---|
 -----------------------------------------------------------4-4---|
 -------------------------------------------------2-2-2-2-2-2-2---|
 -4-4-4-4-4-4-4-4-4-4-4-4-4-4-4-4-0-0-0-0-0-0-0-0-----------------|
   p.m.___________________________________________________________

 -----------------------------------------------------------------|
 -----------------------------------------------------------------|
 -----------------------------------------------------------------|
 -----------------------------------------------------------------|
 -------------------------------------------------2-2-2-2-2-2-2-2-|
 -4-4-4-4-4-4-4-4-4-4-4-4-4-4-4-4-0-0-0-0-0-0-0-0-----------------|
   p.m.___________________________________________________________

 -----------------------------------------------------------------|
 -----------------------------------------------------------------|
 -------------------------------------------------4---4---4---4---|
 -------------------------------------------------4---4---4---4---|
 -------------------------------------------------2---2---2---2---|
 -4-4-4-4-4-4-4-4-4-4-4-4-4-4-4-4-0-0-0-0-0-0-0-0-----------------|
   p.m.___________________________________________________________



CHORUS 

      Guitars 1, 2
 -------0-------0-------------0-------0-------------0-------0-------
 -----0-2-----0-2-----0-----0-2-----0-2-----0-----0-2-----0-2-----0-
 -----4-------4-------4-----4-------4-------4-----4-------4-------4-
 -4-4-----4-4-----4-4---0-0-----0-0-----0-0---4-4-----4-4-----4-4---
 -4-4-----4-4-----4-4---0-0-----0-0-----0-0---4-4-----4-4-----4-4---
 -4-4-----4-4-----4-4---0-0-----0-0-----0-0---4-4-----4-4-----4-4---

 -----------------------------------------|
 -----------------------------------------|
 -----------------------------------------|
 -7-7-7-7-7-7-7-7-0-0-0-0-9-9-9-9-9-9-9-9-|
 -7-7-7-7-7-7-7-7-0-0-0-0-9-9-9-9-9-9-9-9-|
 -7-7-7-7-7-7-7-7-0-0-0-0-9-9-9-9-9-9-9-9-|

 -------0-------0-------------0-------0-------------0-------0-------
 -----0-2-----0-2-----0-----0-2-----0-2-----0-----0-2-----0-2-----0-
 -----4-------4-------4-----4-------4-------4-----4-------4-------4-
 -4-4-----4-4-----4-4---0-0-----0-0-----0-0---4-4-----4-4-----4-4---
 -4-4-----4-4-----4-4---0-0-----0-0-----0-0---4-4-----4-4-----4-4---
 -4-4-----4-4-----4-4---0-0-----0-0-----0-0---4-4-----4-4-----4-4---

 -----------------------------------------|
 -----------------------------------------|
 -----------------------------------------|
 -7-7-7-7-7-7-7-7-0-0-0-0-9-9-9-9-9-9-9-9-|
 -7-7-7-7-7-7-7-7-0-0-0-0-9-9-9-9-9-9-9-9-|
 -7-7-7-7-7-7-7-7-0-0-0-0-9-9-9-9-9-9-9-9-|
 
VERSE 2

      Guitar 1
 -----------------------------------------------------------------|
 -----------------------------------------------------------------|
 -----------------------------------------------------------------|
 -----------------------------------------------------------------|
 -------------------------------------------------2-2-2-2-2-2-2-2-|
 -4-4-4-4-4-4-4-4-4-4-4-4-4-4-4-4-0-0-0-0-0-0-0-0-----------------|
   p.m.___________________________________________________________

 -----------------------------------------------------------------|
 -----------------------------------------------------------------|
 -----------------------------------------------------------4-4---|
 -----------------------------------------------------------4-4---|
 -------------------------------------------------2-2-2-2-2-2-2---|
 -4-4-4-4-4-4-4-4-4-4-4-4-4-4-4-4-0-0-0-0-0-0-0-0-----------------|
   p.m.___________________________________________________________

 -----------------------------------------------------------------|
 -----------------------------------------------------------------|
 -----------------------------------------------------------------|
 -----------------------------------------------------------------|
 -------------------------------------------------2-2-2-2-2-2-2-2-|
 -4-4-4-4-4-4-4-4-4-4-4-4-4-4-4-4-0-0-0-0-0-0-0-0-----------------|
   p.m.___________________________________________________________

 -----------------------------------------------------------------|
 -----------------------------------------------------------------|
 -------------------------------------------------4---4---4---4---|
 -------------------------------------------------4---4---4---4---|
 -------------------------------------------------2---2---2---2---|
 -4-4-4-4-4-4-4-4-4-4-4-4-4-4-4-4-0-0-0-0-0-0-0-0-----------------|
   p.m.___________________________________________________________


      Guitar 2
 ------------------------------------------------------------------------------
 ------------------------------------------------------------------------------
 11--11--11--11--11--11--11-11-11-11-11--11--11--11--11--11--11--11-11-11-11-11
 ------------------------------------------------------------------------------
 ------------------------------------------------------------------------------
 ------------------------------------------------------------------------------
 
 ------------------------------------------------------------------------------
 ------------------------------------------------------------------------------
 11--11--11--11--11--11--11-11-11-11-11--11--11--11--11--11--11--11-11-11-11-11
 ------------------------------------------------------------------------------
 ------------------------------------------------------------------------------
 ------------------------------------------------------------------------------

CHORUS 

      Guitars 1, 2
 -------0-------0-------------0-------0-------------0-------0-------
 -----0-2-----0-2-----0-----0-2-----0-2-----0-----0-2-----0-2-----0-
 -----4-------4-------4-----4-------4-------4-----4-------4-------4-
 -4-4-----4-4-----4-4---0-0-----0-0-----0-0---4-4-----4-4-----4-4---
 -4-4-----4-4-----4-4---0-0-----0-0-----0-0---4-4-----4-4-----4-4---
 -4-4-----4-4-----4-4---0-0-----0-0-----0-0---4-4-----4-4-----4-4---
[ Tab from: http://www.guitartabs.cc/tabs/j/jimmy_eat_world/bleed_american_tab_ver_6.html ]
 -----------------------------------------|
 -----------------------------------------|
 -----------------------------------------|
 -7-7-7-7-7-7-7-7-0-0-0-0-9-9-9-9-9-9-9-9-|
 -7-7-7-7-7-7-7-7-0-0-0-0-9-9-9-9-9-9-9-9-|
 -7-7-7-7-7-7-7-7-0-0-0-0-9-9-9-9-9-9-9-9-|

 -------0-------0-------------0-------0-------------0-------0-------
 -----0-2-----0-2-----0-----0-2-----0-2-----0-----0-2-----0-2-----0-
 -----4-------4-------4-----4-------4-------4-----4-------4-------4-
 -4-4-----4-4-----4-4---0-0-----0-0-----0-0---4-4-----4-4-----4-4---
 -4-4-----4-4-----4-4---0-0-----0-0-----0-0---4-4-----4-4-----4-4---
 -4-4-----4-4-----4-4---0-0-----0-0-----0-0---4-4-----4-4-----4-4---

 -----------------------------------------|
 -----------------------------------------|
 -----------------------------------------|
 -7-7-7-7-7-7-7-7-0-0-0-0-9-9-9-9-9-9-9-9-|
 -7-7-7-7-7-7-7-7-0-0-0-0-9-9-9-9-9-9-9-9-|
 -7-7-7-7-7-7-7-7-0-0-0-0-9-9-9-9-9-9-9-9-|

 BRIDGE
      
      Guitar 1
 ---------------------------------------------------------------
 ---------------------------------------------------------------
 ---------------------------------------------------------------
 4-4-4-4-4-4-4-4-4-4-4-4-4-4-4-4-0-0-0-0-0-0-0-0-0-0-0-0-0-0-0-0
 4-4-4-4-4-4-4-4-4-4-4-4-4-4-4-4-0-0-0-0-0-0-0-0-0-0-0-0-0-0-0-0
 4-4-4-4-4-4-4-4-4-4-4-4-4-4-4-4-0-0-0-0-0-0-0-0-0-0-0-0-0-0-0-0

 ---------------------------------------------------------------
 ---------------------------------------------------------------
 ---------------------------------------------------------------
 7-7-7-7-7-7-7-7-0-0-0-0-9-9-9-9--------------------------------
 7-7-7-7-7-7-7-7-0-0-0-0-9-9-9-9--------------------------------
 7-7-7-7-7-7-7-7-0-0-0-0-9-9-9-9--------------------------------

      Guitar 2
 ----2-------2-------2-------2-------2-------2-------2-------2---
 ----------------------------------------------------------------
 ----------------------------------------------------------------
 4-4---4-4-4---4-4-4---4-4-4---0-0-0---0-0-0---0-0-0---0-0-0---0-
 4-4---4-4-4---4-4-4---4-4-4---0-0-0---0-0-0---0-0-0---0-0-0---0-
 4-4---4-4-4---4-4-4---4-4-4---0-0-0---0-0-0---0-0-0---0-0-0---0-

 --------------------------------|
 --------------------------------|
 9-9-9-9-7-7-6-6-7-7-7-7-4-4-4-4-|
 x-x-x-x-x-x-x-x-x-x-x-x-x-x-x-x-|
 7-7-7-7-5-5-4-4-5-5-5-5-2-2-2-2-|
 --------------------------------|

      Guitar 1 keeps playing riff from Bridge

 SOLO

 ------------------------------------------------------------------------------
 -------5-5------------------55-77---------------5-5---------------------------
 4-66-4-----66-4-66--4-66-44-------66-44--4-66-4-----66-4-66--4-4-6-4--444-6-4-
 ------------------------------------------------------------------------------
 ------------------------------------------------------------------------------
 ------------------------------------------------------------------------------

 ------------------------------------------------------------------------------
 -------5-5------------------55-77---------------5-5---------------------------
 4-66-4-----66-4-66--4-66-44-------66-44--4-66-4-----66-4-66--4-4-6-4-4-4-4-4-4
 ---------------------------------------------------------------------4-4-4-4-4
 ---------------------------------------------------------------------2-2-2-2-2
 ------------------------------------------------------------------------------

 CHORUS (alt.)

 Guitar 1
 
 ----------------------------------------------------------------
 ----------------------------------------------------------------
 ----------------------------------------------------------------
 4-4-4-4-4-4-4-4-4-4-4-4-4-4-4-4-0-0-0-0-0-0-0-0-0-0-0-0-0-0-0-0-
 4-4-4-4-4-4-4-4-4-4-4-4-4-4-4-4-0-0-0-0-0-0-0-0-0-0-0-0-0-0-0-0-
 4-4-4-4-4-4-4-4-4-4-4-4-4-4-4-4-0-0-0-0-0-0-0-0-0-0-0-0-0-0-0-0-

 -------------------------------------------------------------------------|
 -------------------------------------------------------------------------|
 -------------------------------------------------------------------------|
 4-4-4-4-4-4-4-4-4-4-4-4-4-4-4-4--7-7-7-7-7-7-7-7-0-0-0-0-9-9-9-9-9-9-9-9-|
 4-4-4-4-4-4-4-4-4-4-4-4-4-4-4-4--7-7-7-7-7-7-7-7-0-0-0-0-9-9-9-9-9-9-9-9-|
 4-4-4-4-4-4-4-4-4-4-4-4-4-4-4-4--7-7-7-7-7-7-7-7-0-0-0-0-9-9-9-9-9-9-9-9-|

 ----------------------------------------------------------------
 ----------------------------------------------------------------
 ----------------------------------------------------------------
 4-4-4-4-4-4-4-4-4-4-4-4-4-4-4-4-0-0-0-0-0-0-0-0-0-0-0-0-0-0-0-0-
 4-4-4-4-4-4-4-4-4-4-4-4-4-4-4-4-0-0-0-0-0-0-0-0-0-0-0-0-0-0-0-0-
 4-4-4-4-4-4-4-4-4-4-4-4-4-4-4-4-0-0-0-0-0-0-0-0-0-0-0-0-0-0-0-0-

 -------------------------------------------------------------------------|
 -------------------------------------------------------------------------|
 -------------------------------------------------------------------------|
 4-4-4-4-4-4-4-4-4-4-4-4-4-4-4-4--7-7-7-7-7-7-7-7-0-0-0-0-9-9-9-9-4-4-----|
 4-4-4-4-4-4-4-4-4-4-4-4-4-4-4-4--7-7-7-7-7-7-7-7-0-0-0-0-9-9-9-9-4-4-----|
 4-4-4-4-4-4-4-4-4-4-4-4-4-4-4-4--7-7-7-7-7-7-7-7-0-0-0-0-9-9-9-9-4-4-----|



       Guitar 2
 -------0-------0-------------0-------0-------------0-------0-------
 -----0-2-----0-2-----0-----0-2-----0-2-----0-----0-2-----0-2-----0-
 -----4-------4-------4-----4-------4-------4-----4-------4-------4-
 -4-4-----4-4-----4-4---0-0-----0-0-----0-0---4-4-----4-4-----4-4---
 -4-4-----4-4-----4-4---0-0-----0-0-----0-0---4-4-----4-4-----4-4---
 -4-4-----4-4-----4-4---0-0-----0-0-----0-0---4-4-----4-4-----4-4---

 -----------------------------------------|
 -----------------------------------------|
 -----------------------------------------|
 -7-7-7-7-7-7-7-7-0-0-0-0-9-9-9-9-9-9-9-9-|  
 -7-7-7-7-7-7-7-7-0-0-0-0-9-9-9-9-9-9-9-9-|
 -7-7-7-7-7-7-7-7-0-0-0-0-9-9-9-9-9-9-9-9-|

 -------0-------0-------------0-------0-------------0-------0-------
 -----0-2-----0-2-----0-----0-2-----0-2-----0-----0-2-----0-2-----0-
 -----4-------4-------4-----4-------4-------4-----4-------4-------4-
 -4-4-----4-4-----4-4---0-0-----0-0-----0-0---4-4-----4-4-----4-4---
 -4-4-----4-4-----4-4---0-0-----0-0-----0-0---4-4-----4-4-----4-4---
 -4-4-----4-4-----4-4---0-0-----0-0-----0-0---4-4-----4-4-----4-4---

 -----------------------------------------|
 -----------------------------------------|
 -----------------------------------------|
 -7-7-7-7-7-7-7-7-0-0-0-0-9-9-9-9-4-4-----|  
 -7-7-7-7-7-7-7-7-0-0-0-0-9-9-9-9-4-4-----|
 -7-7-7-7-7-7-7-7-0-0-0-0-9-9-9-9-4-4-----|




LYRICS

I'm not alone cause the TV's on, yeah 
I'm not crazy cause I take the right pills everyday 
And rest, clean your conscious, clear your thoughts, with speyside with your grain 
Clean your conscious, clear your thoughts, with speyside 

Chorus 

Salt, sweat, sugar on the asphalt 
Our hearts littering the topsoil 
Tune in, and we can get the last call 
Our lives, our coal 
Salt, sweat, sugar on the asphalt 
Our hearts, yeah littering the topsoil 
Sign up, the picket line of the parade 
Our lives

Verse 

I'm not alone cause the TV's on, yeah 
I'm not crazy cause I take the right pills everyday 
And rest, clean your conscious, clear your thoughts, with speyside with your grain 
Clean your conscious, clear your thoughts, with speyside 

Chorus 

Salt, sweat, sugar on the asphalt 
Our hearts littering the topsoil 
Tune in, and we can get the last call
Our lives, our coal
Salt, sweat, sugar on the asphalt
Our hearts littering the topsoil
Sign up, the picket line of the parade
Our lives...

Bridge 

Bled, from my arm
Won't they give it a rest now? Give it a reast now?
Now, now, now... 

Solo 

Chorus 

Salt, sweat, sugar on the asphalt 
Our hearts littering the topsoil 
Tune in, and we can get the last call
Our lives, our coal
Salt, sweat, sugar on the asphalt
Our hearts littering the topsoil
Sign up, the picket line of the parade
Our lives...
Comments