Jimmy Eat World - Bleed American Live Chords & Tabs

 

Bleed American Live Chords & Tabs

Jimmy Eat World Chords & Tabs

Version: 1 Type: Tab 1 rating
1 star 2 stars 3 stars 4 stars 5 stars
comments

Bleed American Live Tab

Jimmy Eat World
Bleed American Live on Kilbourn
Tuned Down 1 half Step 
Intro& Chorus Riff
1)-----------------------------------------------------------------                1)---
2)-----0--2--------0--2------0--------0--2------0--2------0---                     2)---
3)-----------------------------------------------------------------                3)--7
4)-----------------------------------------------------------------                4)--x
5)----------------------------------------------------------------- (2 times then) 5)--5 (12X)
6)-3-3-------3-3---------3-3-----0-0-------0-0-------0-0-----                      6)--- 

hold the 3s with ur thumb
[ Tab from: http://www.guitartabs.cc/tabs/j/jimmy_eat_world/bleed_american_live_tab.html ]
Chorus Riff (repeat 4 times)
3)-----------------------------------------------------------5---------------------
4)--2-----------------------------5--------------------------x---------------------
5)--0---(pm about 16x)------------5----(pm about 8x)---------3-----(pm about 8x)---
6)--------------------------------3------------------------------------------------

Then play the Chorus riff again

During the 2nd verse the 2nd guitar can play this repeat as many Xs as needed

2)-7--7--7--7--7--7--7-7--7-7


I dunno the 1 part when he says give it a rest now…. Ill try and figure it out later

Solo repeat as many times as u want 
1)------------------------------
2)--------------5-5------------
3)-4--6-6--4--------6-6-4--6
4)------------------------------

theres some more parts I don’t know but this is most of it
any comments hate mail bomb threats send to metallicamike333@yahoo.com
Comments