Jimmy Eat World - Believe In What You Want Chords & Tabs

 

Believe In What You Want Chords & Tabs

Jimmy Eat World Chords & Tabs

Version: 1 Type: Tab 0 ratings
1 star 2 stars 3 stars 4 stars 5 stars
comments

Believe In What You Want Tab

   
#----------------------------------PLEASE NOTE---------------------------------#
#This file is the author's own work and represents their interpretation of the #
#song. You may only use this file for private study, scholarship, or research. #
#------------------------------------------------------------------------------#

Song:Believe in what you want
Artist:Jimmy Eat World
Album:clarity
Author:Frank Sortelli
Tuning:Drop D


Intro x2 : verse x4

E|--------------------------------------------------| 
B|--------------------------------------------------| 
G|-10-10-10-10hbr--9-9-9-9-10-10-10-10-10-10-10-10--| 
D|-x--x--x---xhbr--x-x-x-x-8--8--8--8--8--8--8--8---| 
A|-8--8--8---8hbr--8-8-8-8-8--8--8--8--8--8--8--8---| 
d|-------------------------8--8--8--8--8--8--8--8---| 
[ Tab from: http://www.guitartabs.cc/tabs/j/jimmy_eat_world/believe_in_what_you_want_tab.html ]
 
Chorus: x2
   F               Dm              Bb 
E|---------------------------------------------------------| 
B|-----------------3-3-3-3-3-3-3-3-------------------------| 
G|-5-5-5-5-5-5-5-5-2-2-2-2-2-2-2-2-10-10-10-10-10-10-10-10-| 
D|-3-3-3-3-3-3-3-3-0-0-0-0-0-0-0-0-8--8--8--8--8--8--8--8--| 
A|-3-3-3-3-3-3-3-3-0-0-0-0-0-0-0-0-8--8--8--8--8--8--8--8--| 
d|-3-3-3-3-3-3-3-3-0-0-0-0-0-0-0-0-8--8--8--8--8--8--8--8--| 

  G       Bb 
E|---------------------| 
B|---------------------| 
G|-7-7-7-7\10-10-10-10-| 
D|-5-5-5-5\8--8--8--8--| 
A|-5-5-5-5\8--8--8--8--| 
d|-5-5-5-5\8--8--8--8--| 
  

Bridge: x4
  Dm              Bb 
E|-----------------------------------------| 
B|-----------------------------------------| 
G|-2-2-2-2-2-2-2-2-10-10-10-10-10-10-10-10-| 
D|-0-0-0-0-0-0-0-0-8--8--8--8--8--8--8--8--| 
A|-0-0-0-0-0-0-0-0-8--8--8--8--8--8--8--8--| 
d|-0-0-0-0-0-0-0-0-8--8--8--8--8--8--8--8--| 

your camera flash 
on us, meaningless 

End on: 
  F 
E|---| 
B|---| 
G|-5-| 
D|-3-| 
A|-3-| 
D|-3-| 

Structure:

verse 1

chorus

verse 2

chorus

bridge

verse 3

chorus

end



Email me with comment or questions.
Frank sortelli    Firebreather6@cs.com
6:48 PM 9/9/01     copyright 2001
Comments