Jimmy Eat World - Authority Song Chords & Tabs

 

Authority Song Chords & Tabs

Jimmy Eat World Chords & Tabs

Version: 4 Type: Tab 0 ratings
1 star 2 stars 3 stars 4 stars 5 stars
comments

Authority Song Tab

   
 this is my first tab so dont expect it to be perfect.
INTRO
E|------------------------------------------------------------|
B|---3-3-------3--3-3-3------------3-3---3--3--3--3--3--------|
G|---2-2-2-2-2-4--4-4-4-2-2-2------2-2-2-4--4--4--4--4--------|
D|---0-0-2-2-2-4--4-4-4-2-2-2------0-0-2-4--4--4--4--4--------|
A|-------0-0-0-2--2-2-2-0-0-0-0--------2-2--2--2--2--2--------|
D|-0-----------------------------0----------------------------|

Chorus:
Guitar 1
|-----------------------------------------------------------------|
|-----------------3-3-3-3-3-3-3-3-----------------3-3-3-3-3-3-3-3-|
|-2-2-2-2-2-2-2-2-4-4-4-4-4-4-4-4-2-2-2-2-2-2-2-2-4-4-4-4-4-4-4-4-|
|-0-0-0-0-2-2-2-2-4-4-4-4-4-4-4-4-0-0-0-0-2-2-2-2-4-4-4-4-4-4-4-4-|
|-0-0-0-0-0-0-0-0-2-2-2-2-2-2-2-2-0-0-0-0-0-0-0-0-2-2-2-2-2-2-2-2-|
|-0-0-0-0-------------------------0-0-0-0-------------------------|
[ Tab from: http://www.guitartabs.cc/tabs/j/jimmy_eat_world/authority_song_tab_ver_4.html ]
BRIDGE
E|-------------------------|
B|-------------------------|
G|-------------------------|
D|-9-9-9-9-9-9-5-5-5-5-5-5-|
A|-9-9-9-9-9-9-5-5-5-5-5-5-|
D|-9-9-9-9-9-9-5-5-5-5-5-5-| 2x

E|-------------------------|
B|-------------------------|
G|-------------------------|
D|-7-7-7-7-7-7-9--9-5--5-5-|
A|-7-7-7-7-7-7-9--9-5--5-5-|
D|-7-7-7-7-7-7-9--9-5--5-5-| 3x

E|-----------------|
B|-----------------|
G|-----------------|
D|-7-7-7-7-7-7-7-7-|
A|-7-7-7-7-7-7-7-7-|
D|-7-7-7-7-7-7-7-7-| 2x

Before last verse:
Guitar 1
|------------------------------------------------------|
|----3-3-------3--3-3-3----------3-3-------3-3-3-3-----|
|----2-2-2-2-2-4--4-4-4-2-2-2----2-2-2-2-2-4-4-4-4-----|
|----0-0-2-2-2-4--4-4-4-2-2-2----0-0-2-2-2-4-4-4-4--3~-|
|--------0-0-0-2--2-2-2-0-0-0--------0-0-0-2-2-2-2--3~-|
|-0---------------------------0---------------------3~-|

END
E|----------------|
B|----------------|
G|----------------|
D|--5--5-5-5-5--7-|
A|--5--5-5-5-5--7-|
D|--5--5-5-5-5--7-|


Structure:

Intro
Verse
Pre-Chorus
Chorus
Verse
Pre-Chorus
Chorus
Bridge
Verse
Pre-Chorus
Chorus
Ending
Comments