Jimmy Eat World - Authority Song Chords & Tabs

 

Authority Song Chords & Tabs

Jimmy Eat World Chords & Tabs

Version: 3 Type: Tab 0 ratings
1 star 2 stars 3 stars 4 stars 5 stars
comments

Authority Song Tab

   
The Authority Song
By Jimmy Eat World.
Tabbed by Pedro Leitao [poopie@simplyghetto.com]
My first time tabbing out a song [09/05/01]... not easy!


VERSE\INTRO
E|-------------------------------------------------------|
B|-------------------------------------------------------|
G|-----7-7------------------------7-7--------------------|
D|-0---7-7-7-7/9--9-9-9-5-5-5--0--7-7-7-7/9--9-9-9-9-9-9-|
A|-0---5-5-7-7/9--9-9-9-5-5-5--0--5-5-7-7/9--9-9-9-9-9-9-|
D|-0---x-x-7-7/9--9-9-9-5-5-5--0--x-x-7-7/9--9-9-9-9-9-9-| 3x


CHORUS
E|---------------------------------------------------------------------------|
B|---------------------------------------------------------------------------|
G|-------------------------7-7-7-7-7-7-9-9-9-9-9-9---------------------------|
D|-5-5-5-5-5-5-7-7-7-7-7-7-7-7-7-7-7-7-9-9-9-9-9-9-5-5-5-5-5-5---7-7-7-7-7-7-|
A|-5-5-5-5-5-5-7-7-7-7-7-7-5-5-5-5-5-5-9-9-9-9-9-9-5-5-5-5-5-5---7-7-7-7-7-7-|
D|-5-5-5-5-5-5-7-7-7-7-7-7-------------------------5-5-5-5-5-5---7-7-7-7-7-7-|

E|-------------------------|
B|-------------------------|
G|-7-7---------------------|
D|-7-7-7-7-7-7-9-9-9-9-9-9-|
A|-5-5-7-7-7-7-9-9-9-9-9-9-|
D|-x-x-7-7-7-7-9-9-9-9-9-9-| 4x


BRIDGE
E|-------------------------|
B|-------------------------|
G|-------------------------|
D|-9-9-9-9-9-9-5-5-5-5-5-5-|
A|-9-9-9-9-9-9-5-5-5-5-5-5-|
D|-9-9-9-9-9-9-5-5-5-5-5-5-| 2x
[ Tab from: http://www.guitartabs.cc/tabs/j/jimmy_eat_world/authority_song_tab_ver_3.html ]
E|---------------------------|
B|---------------------------|
G|---------------------------|
D|-7-7-7-7-7-7-9-9-9-5-5-5-5-|
A|-7-7-7-7-7-7-9-9-9-5-5-5-5-|
D|-7-7-7-7-7-7-9-9-9-5-5-5-5-| 3x

E|-----------------|
B|-----------------|
G|-----------------|
D|-7-7-7-7-7-7-7-7-|
A|-7-7-7-7-7-7-7-7-|
D|-7-7-7-7-7-7-7-7-| 2x


END
E|----------|
B|----------|
G|----------|
D|-5-5-5--7-|
A|-5-5-5--7-|
D|-5-5-5--7-|

[INTRO/VERSE]
It?s how the hustle goes, see what the jukebox knows.
Put my last quarter on, I play "Authority Song".

[CHORUS]
Honesty or mystery?
Tell me I?m not scared anymore.
I got no secret purpose, I don?t seem obvious do I?
I don?t seem obvious do I?

[VERSE]
The DJ never has it, J A M C Automatic.
If those were Roy's headphones, you bet he'd play "What Goes On".

[CHORUS]
Honesty or mystery?
Tell me I?m not scared anymore.
I got no secret purpose, I don?t seem obvious do I?
I don?t seem obvious do I?

[BRIDGE]
Do I?
Oh I'm here, that means something doesn't it?
Oh won?t you dance with me a little bit?
Oh you don?t notice, I guess the music?s too loud.

[VERSE]
It?s how the hustle goes, see what the jukebox knows.
Put my last quarter on, I play "Authority Song".

[CHORUS]
Honesty or mystery?
Tell me I?m not scared anymore.
Say anything you want already I?m not scared anymore.
Honesty or mystery?
Want something else?
Just tell me I?m not scared anymore.
I got no secret purpose, I don?t seem obvious do I?
I don?t seem obvious do I?

[END]
Comments