Jimmy Eat World - Authority Song Chords & Tabs

 

Authority Song Chords & Tabs

Jimmy Eat World Chords & Tabs

Version: 1 Type: Bass Tab 0 ratings
1 star 2 stars 3 stars 4 stars 5 stars
comments

Authority Song Bass Tab

Song    : Authority Song
Band    : Jimmy Eat World
Tab By  : TAD
tuning normal

PART 1
G:------------------]
D:------------------]
A:--55-00-22-22-00--]
E:-0----------------]

PART 2
G:----------------------------]
D:----------------------------]
A:-----------00-22------------]
E:-5555-7777-------5555-7777--]

PART 3
G:----------------]
D:----------------]
A:---55-0000-222--]
E:-0--------------]
[ Tab from: http://www.guitartabs.cc/tabs/j/jimmy_eat_world/authority_song_btab.html ]
PART 4
G:-------------------------------------------]
D:-------------------------------------------]
A:-2222----2222---------2222-------2222------]
E:-----5555----5555-7777----5555-77----5555--]

PART 5
G:-------------------]
D:-------------------]
A:-----2222----0000--]
E:-7777----5555------]

ORDER
PART 1  x5
PART 2  x1
PART 3  x4
PART 1  x4
PART 2  x1
PART 3  x4
PART 4  x1
PART 5  x4
PART 2  x4
PART 3  x9

thats it.
Comments